» » »

Aa Bondy, A Slow Parade Tabs (ver.1)

Artists:  A B C D E F G H I J K L M N O P Q R S T U V W X Y Z # 

A Slow Parade Tabs (ver.1)

Aa Bondy Tabs
Rating:
4/5 (4 votes)
A Slow Parade lessons Tabs too difficult? Try these video lessons and learn fast
                "A Slow Parade"
A.A. Bondy
When the Devil's Loose (2009)

This tab is quite accurate, but feel free to comment any mistakes/suggestions. Happy playing!

Intro:
e||-3h5-3-----------0----------|-3h5-3----------------3---|
b||-------3h5-3-1-3-1---1p0h1--|-------3h5-3-1-3-s5-5-5---|
g||-----------------0h2--------|---------------------(5)--|
d||-----------------3----------|---------------------(5)--|
a||-----------------x----------|---------------------(3)--|
E||-----------------1----------|--------------------------|


e||-3h5-3-----------0----------|-3h5-3----------------3---|
b||-------3h5-3-1-3-1---1p0h1--|-------3h5-3-1-3-1----0---|
g||-----------------0h2--------|----------------------0---|
d||-----------------3----------|-----------------2----0---|
a||-----------------x----------|-----------------3----2---|
E||-----------------1----------|----------------------3---|

                          F
Drag your shadow down the street
            G      C
Is it you I was to meet
                       G     F
With your saints there on a chain
             G     C
Waiting on another rain

F   G   Am     G   F
And I'm go-----ing down
Where the waves will surround
F  G   C    G       F
To the roll and the pound
                  C
Of the wild, wild sea
                 G
Talking sweet to me

Solo (Key of Am):

e||--------------------|
b||-3b5b5b5b3-1-3-1----|
g||---------------0h2--|    etc. (follows same pattern as intro)
d||---------------3----|
a||--------------------|
E||---------------1----|

Marching in a slow parade
There are ashes where you laid
Sometimes I don't mind at all
And sometimes head against the wall
The tide will bring and tide will take
Find another horse to break
You're just a rider on a wheel
In a dream where love was real

And I'm going down
Where the waves will surround
To the roll and the pound
Of the wild, wild sea
Talking sweet to me
            
Submit corrections

comments powered by Disqus
↑ Back to top | Aa Bondy Tabs for A Slow Parade. Lyrics for acoustic guitar and electric guitar. Tablatures and chords are parodies/interpretations of the original songs. You may use it for private study, scholarship, research or language learning purposes only