>
 >
 >
Everytime

Everytime Guitar Tabs

A1 - Everytime chords, tabs, tablatures, lyrics

Guitar lessons | Add/correct | Request | Top 50 tabs Artists:  A B C D E F G H I J K L M N O P Q R S T U V W X Y Z 0-9

Everytime Guitar Tabs – A1

CD, Sheet music, Poster

Do you like Everytime? Share with your friends now
ChordsChords v2Tabs
Everytime(acoustic) - A1

Tuning:EADGBe

  Intro:  A           G        F        D             E            D    E 
 e|----------5--|------3----|--1--|--------3-2--|-------------|--2-------0-|
 B|--------5----|----3---3--|--1--|------3------|-------------|--3---3---0-|
 G|------6------|--4--------|--2--|----2--------|--------3-1--|----2---3-1-|
 D|----7--------|-----------|--3--|--0----------|------2------|--0---------|
 A|-------------|-----------|--3--|-------------|----2--------|------------|
 E|--5----------|-----------|--1--|-------------|--0----------|------------|

  Verse 1:  A             C#m                              D
 e|-----0------------------4-----|-------------------------2----------|
 B|-----2------------------5-----|-------------------------3----------|
 G|-----2------------------6-----|-------------------------2----------|
 D|-----2------------------6-----|-------------------------0----------|
 A|-----0------------------4-----|------------------------------------|
 E|-----x------------------x-----|------------------------------------|
    Lately, I'm not who I used to be  Someone's come and taken me
                            E
 e|-----------------------0--0---|------------------------------------|
 B|-----------------------0--0---|------------------------------------|
 G|-----------------------2--1---|------------------------------------|
 D|-----------------------2--2---|------------------------------------|
 A|-----------------------2--2---|------------------------------------|
 E|-----------------------0--0---|------------------------------------|
      Where I don't wanna go 
        A                 C#m                              D
 e|-----0------------------4-----|-------------------------2----------|
 B|-----2------------------5-----|-------------------------3----------|
 G|-----2------------------6-----|-------------------------2----------|
 D|-----2------------------6-----|-------------------------0----------|
 A|-----0------------------4-----|------------------------------------|
 E|-----x------------------x-----|------------------------------------|
  If I knew exactly what I have to do In order to be there for you 

 e|-----------------------0--0---|------------------------------------|
 B|-----------------------0--0---|------------------------------------|
 G|-----------------------2--1---|------------------------------------|
 D|-----------------------2--2---|------------------------------------|
 A|-----------------------2--2---|------------------------------------|
 E|-----------------------0--0---|------------------------------------|
   When you were feeling low

  Refrain: Bm             A                           E
 e|-----2-----------------0-----------------------0--------0-----|
 B|-----3-----------------2-----------------------0--------0-----|
 G|-----4-----------------2-----------------------2--------1-----|
 D|-----4-----------------2-----------------------2--------2-----|
 A|-----2-----------------0-----------------------2--------2-----|
 E|-----x-----------------x-----------------------0--------0-----|
   And all the things we ever wanted  Were once yours and mine

 e|--------------0-----------0-----------0--------------|
 B|-----------0-----0-----0-----0-----0-----0-----------|
 G|--------2-----------1-----------2------------1-------|
 D|-----------------------------------------------------|
 A|-----------------------------------------------------|
 E|-----------------------------------------------------|
   Now,I know we can revive it All the love we left 

              
  Chorus:
                  A
    Everytime I kiss I feel your lips and
                 E
    Everytime I cry I see your smile 
                      F#m                  
    And everytime I close my eyes 
     E       D E
    I realise 
                A
    That Everytime I hold your hand in mine
                        E
    The sweetest thing my heart could ever find 
           Bm
    And I have never felt this way 
      D        E
    Since the day 
                       A    
    I gave your love away

   Verse 2:
         A
    Save me 
                     C#m
    I've fallen from my destiny
               D
    You and I were meant to be 
      Bm                 E
    I've thrown it all away 
            A
    Now you're gone 
            C#m
    It's time for me to carry on 
              D
    But baby I just can't go on
             Bm           E    
    Without you by my side

    (Repeat Refrain and Chorus)

  Bridge:
     D          E
    We can survive it
              D                D
    All the pain we feel inside
                   E                      F#m 
    You relied on me and now I've let you down 
              D                                      
    Now I promise you forever 
           A             D   
    I will be the best I can
           A             D
    Now I know we can revive it 
           A         E
    All the love we left 

   Repeat Chorus (2X)





Comments


Popular A1 tabs & chords
Everytime Chords
Like A Rose Chords
One More Try 1 Chords
Same Old Brand New You Chords
The Things We Never Did Chords
Caught In The Middle (Intro) Tabs
Caught In The Middle 1 Tabs
Heaven By Your Side Tabs
Like A Rose Intro Tabs
Eveytime Ukulele


Song lyrics



↑ Back to top | Tablatures and chords are parodies/interpretations of the original songs. You may use it for private study, scholarship, research or language learning purposes only
© 2014 AZChords.com Contact us | Privacy policy | DMCA | Add/correct tabs | Request tabs | Top 50 tabs