» »

A, Pacific Ocean Blue Tabs (ver.1)

Artists:  A B C D E F G H I J K L M N O P Q R S T U V W X Y Z # 

Pacific Ocean Blue Tabs (ver.1)

A Tabs
 Rating:
4/5 (4 votes)
Pacific Ocean Blue lessons Tabs too difficult? Try these video lessons and learn fast
1
                -------------------------------------------------------------------------------
-------------------------------------------------------------------------------

How could someone not tab this song already it's bloody awesome!!!! So here it is
i took the liberty of doing it!!! i'm almost 100% sure about it, sounds good when
i play it!!! Enjoi...

Tuning: Drop D (DADGBe)

Intro
Rhy. Fig. 1                                       End Rhy. Fig. 1 (x2)
e|---------------------------------------------------------------------------|
B|x-8-8-x-8-8-x-8-8-x-8-8-x--------------------------------------------------|
G|x-7-7-x-7-7-x-7-7-x-7-7-x--------------------------------------------------|
D|x-5-5-x-5-5-x-5-5-x-5-5-x-9--9-9-9-9-9-9--10--10-10-10-10-10-10------------|
A|--------------------------9--9-9-9-9-9-9--10--10-10-10-10-10-10------------|
D|--------------------------9--9-9-9-9-9-9--10--10-10-10-10-10-10------------|

Verse - Rhy. Fig. 1 (x2)  
    Rhy. Fig. 2                                           End Rhy. Fig. 2 (x2)
e|---------------------------------------------------------------------------|
B|---------------------------------------------------------------------------|
G|---------------------------------------------------------------------------|
D|---5--5-5-5-5-5-5--5--5-5-5-5-5-5--9--9-9-9-9-9-9--10--10-10-10-10-10-10---|
A|---5--5-5-5-5-5-5--5--5-5-5-5-5-5--9--9-9-9-9-9-9--10--10-10-10-10-10-10---|
D|10\5--5-5-5-5-5-5--5--5-5-5-5-5-5--9--9-9-9-9-9-9--10--10-10-10-10-10-10---|

e|---------------------------------------------------------------------------|
B|---------------------------------------------------------------------------|
G|---------------------------------------------------------------------------|
D|9--9-9-9-9-9-9--10--10-10-10-10-10-10--------------------------------------|
A|9--9-9-9-9-9-9--10--10-10-10-10-10-10--------------------------------------|
D|9--9-9-9-9-9-9--10--10-10-10-10-10-10\-------------------------------------|

Chorus
Rhy. Fig. 3
e|---------------------------------------------------------------------------|
B|---------------------------------------------------------------------------|
G|---------------------------------------------------------------------------|
D|2--2-2-2-2-2-2-2-2-2-2-2-2-2-5--5-5-5-5-5-5-5-5-5-5-5-5-5-4--4-4-4-4-4-4---|
A|2--2-2-2-2-2-2-2-2-2-2-2-2-2-5--5-5-5-5-5-5-5-5-5-5-5-5-5-5--5-5-5-5-5-5---|
D|2--2-2-2-2-2-2-2-2-2-2-2-2-2-5--5-5-5-5-5-5-5-5-5-5-5-5-5-4--4-4-4-4-4-4---|

                                  End Rhy. Fig. 3 (x2)
e|---------------------------------------------------------------------------|
B|---------------------------------------------------------------------------|
G|---------------------------------------------------------------------------|
D|4-4-4-4-4-4-4-4--5--5-5-5-5-5-5-5-5-5-5-5-5-5-5----------------------------|
A|5-5-5-5-5-5-5-5--5--5-5-5-5-5-5-5-5-5-5-5-5-5-5----------------------------|
D|4-4-4-4-4-4-4-4--5--5-5-5-5-5-5-5-5-5-5-5-5-5-5----------------------------|

Verse - Rhy. Fig. 1 (x2), Rhy. Fig. 2 (x2)
Chorus - Rhy. Fig. 3 (x2)

Verse 3
e|---------------------------------------------------------------------------|
B|---------------------------------------------------------------------------|
G|---------------------------------------------------------------------------|
D|0-0-0-0-0-0-0-0-0-0-0-0-0-0-0-0-7-7-7-7-7-7-7-7-7-7-7-7-7-7-7-7------------|
A|0-0-0-0-0-0-0-0-0-0-0-0-0-0-0-0-7-7-7-7-7-7-7-7-7-7-7-7-7-7-7-7------------|
D|0-0-0-0-0-0-0-0-0-0-0-0-0-0-0-0-7-7-7-7-7-7-7-7-7-7-7-7-7-7-7-7------------|

e|---------------------------------------------------------------------------|
B|---------------------------------------------------------------------------|
G|---------------------------------------------------------------------------|
D|4-4-4-4-4-4-4-4-4-4-4-4-4-4-4-4-5-5-5-5-5-5-5-5-5-5-5-5-5-5-5-5------------|
A|4-4-4-4-4-4-4-4-4-4-4-4-4-4-4-4-5-5-5-5-5-5-5-5-5-5-5-5-5-5-5-5------------|
D|4-4-4-4-4-4-4-4-4-4-4-4-4-4-4-4-5-5-5-5-5-5-5-5-5-5-5-5-5-5-5-5------------|

e|---------------------------------------------------------------------------|
B|---------------------------------------------------------------------------|
G|---------------------------------------------------------------------------|
D|0-0-0-0-0-0-0-0-0-0-0-0-0-0-0-0-7-7-7-7-7-7-7-7-7-7-7-7-7-7-7-7------------|
A|0-0-0-0-0-0-0-0-0-0-0-0-0-0-0-0-7-7-7-7-7-7-7-7-7-7-7-7-7-7-7-7------------|
D|0-0-0-0-0-0-0-0-0-0-0-0-0-0-0-0-7-7-7-7-7-7-7-7-7-7-7-7-7-7-7-7------------|

e|---------------------------------------------------------------------------|
B|---------------------------------------------------------------------------|
G|---------------------------------------------------------------------------|
D|9-9-9-9-9-9-9-9-9-9-9-9-9-9-9-9-5-5-5-5-5-5-5-5-5-5-5-5-5-5-5-5--5-5--5-5-5|
A|9-9-9-9-9-9-9-9-9-9-9-9-9-9-9-9-5-5-5-5-5-5-5-5-5-5-5-5-5-5-5-5--5-5--5-5-5|
D|9-9-9-9-9-9-9-9-9-9-9-9-9-9-9-9-5-5-5-5-5-5-5-5-5-5-5-5-5-5-5-5--5-5--5-5-5|

e|---------------------------------------------------------------------------|
B|---------------------------------------------------------------------------|
G|14-/-16~~~~--14-/-16~~~~--14-/-16~~~~--14-/-16~~~~-------------------------|
D|---------------------------------------------------------------------------|
A|---------------------------------------------------------------------------|
D|---------------------------------------------------------------------------|

Chorus - Rhy. Fig. 3 (x6) - on 2nd time through stop on the first D|5
                                                                  A|5
                                                                  D|5
                         
                            and rest then carry on from D|4
                                                        A|5
                                                        D|4

Finish on:
e|---------------------------------------------------------------------------|
B|---------------------------------------------------------------------------|
G|---------------------------------------------------------------------------|
D|5--------------------------------------------------------------------------|
A|5--------------------------------------------------------------------------|
D|5--------------------------------------------------------------------------|

| /  slide up
| \  slide down
| ~  vibrato
| x  Mute note
===============================================================================
            
Submit corrections

comments powered by Disqus
↑ Back to top | A Tabs for Pacific Ocean Blue. Lyrics for acoustic guitar and electric guitar. 1 Tablatures and chords are parodies/interpretations of the original songs. You may use it for private study, scholarship, research or language learning purposes only