>
 >
 >
Nothing 2

Nothing 2 Guitar Tabs

A - Nothing 2 chords, tabs, tablatures, lyrics

Guitar lessons | Add/correct | Request | Top 50 tabs Artists:  A B C D E F G H I J K L M N O P Q R S T U V W X Y Z 0-9

Nothing 2 Guitar Tabs – A

CD, Sheet music, Poster

Do you like Nothing 2? Share with your friends now
Bass TabsBass Tabs v2Bass Tabs v3ChordsTabsTabs v2Tabs v3
Modified by: Jordan.
Tuning: Drop D (DADGBE)


Intro/Chorus:

------------------------------------------------------------------------------|
------------------------------------------------------------------------------|
------------------------------------------------------------------------------|
-4-4-4-4--4-4-4-4-4-4-7-7-7-7-0-0-0-0--0-0-0-0-0-0-7-7-7-7--------------------|
-4-4-4-4--4-4-4-4-4-4-7-7-7-7-0-0-0-0--0-0-0-0-0-0-7-7-7-7--------------------|
-4-4-4-4--4-4-4-4-4-4-7-7-7-7-0-0-0-0--0-0-0-0-0-0-7-7-7-7--------------------|

------------------------------------------------------------------------------|
------------------------------------------------------------------------------|
------------------------------------------------------------------------------|
-4-4-4-4--4-4-4-4-4-4-7-7-7-7-0-0-0-0-h12/1---0-0-0-0-h12/1-------------------|
-4-4-4-4--4-4-4-4-4-4-7-7-7-7-0-0-0-0-h12/1---0-0-0-0-h12/1-------------------|
-4-4-4-4--4-4-4-4-4-4-7-7-7-7-0-0-0-0-h12/1---0-0-0-0-h12/1-------------------|   x2


Verse:

--17-16-14---17-16-14---------------------------------------------------------|
-------------------------17-15-14--15--14h15---15-14-17-15-14-----------------|
------------------------------------------------------------------------------|
------------------------------------------------------------------------------|
------------------------------------------------------------------------------|
------------------------------------------------------------------------------|   x2


PréChorus:

-------------|------10-9------|-----------------------------------------------|
------10-----|-----------7----|-------10---10/1-------------------------------|
--7-9----9---|----------------|---7-9----9------------------------------------|
-------------|----------------|-----------------------------------------------|
-- PART 1  --|--   PART 2   --|--   PART 3   ---------------------------------| Part 1 x6 > Part 2
-------------|----------------|-----------------------------------------------| Part 1 x6 > Part 3


Chorus:

------------------------------------------------------------------------------|
------------------------------------------------------------------------------|
------------------------------------------------------------------------------|
-4-4-4-4--4-4-4-4-4-4-7-7-7-7-0-0-0-0--0-0-0-0-0-0-7-7-7-7--------------------|
-4-4-4-4--4-4-4-4-4-4-7-7-7-7-0-0-0-0--0-0-0-0-0-0-7-7-7-7--------------------|
-4-4-4-4--4-4-4-4-4-4-7-7-7-7-0-0-0-0--0-0-0-0-0-0-7-7-7-7--------------------|

------------------------------------------------------------------------------|
------------------------------------------------------------------------------|
------------------------------------------------------------------------------|
-4-4-4-4--4-4-4-4-4-4-7-7-7-7-0-0-0-0-h12/1---0-0-0-0-h12/1-------------------|
-4-4-4-4--4-4-4-4-4-4-7-7-7-7-0-0-0-0-h12/1---0-0-0-0-h12/1-------------------|
-4-4-4-4--4-4-4-4-4-4-7-7-7-7-0-0-0-0-h12/1---0-0-0-0-h12/1-------------------|   x2


                (Wait a seconde)


Verse:

--17-16-14---17-16-14---------------------------------------------------------|
-------------------------17-15-14--15--14h15---15-14-17-15-14-----------------|
------------------------------------------------------------------------------|
------------------------------------------------------------------------------|
------------------------------------------------------------------------------|
------------------------------------------------------------------------------|   x2


PréChorus:

-------------|------10-9------|-----------------------------------------------|
------10-----|-----------7----|-----------------------------------------------|
--7-9----9---|----------------|-----------------------------------------------|
-------------|----------------|-----------------------------------------------|
-- PART 1  --|--   PART 2   --|-----------------------------------------------|
-------------|----------------|-----------------------------------------------| Part 1 
> Part 2
                                                         (Only, it's not like the first PréChorus)


Chorus:

------------------------------------------------------------------------------|
------------------------------------------------------------------------------|
------------------------------------------------------------------------------|
-4-4-4-4--4-4-4-4-4-4-7-7-7-7-0-0-0-0--0-0-0-0-0-0-7-7-7-7--------------------|
-4-4-4-4--4-4-4-4-4-4-7-7-7-7-0-0-0-0--0-0-0-0-0-0-7-7-7-7--------------------|
-4-4-4-4--4-4-4-4-4-4-7-7-7-7-0-0-0-0--0-0-0-0-0-0-7-7-7-7--------------------|

------------------------------------------------------------------------------|
------------------------------------------------------------------------------|
------------------------------------------------------------------------------|
-4-4-4-4--4-4-4-4-4-4-7-7-7-7-0-0-0-0-h12/1---0-0-0-0-h12/1-------------------|
-4-4-4-4--4-4-4-4-4-4-7-7-7-7-0-0-0-0-h12/1---0-0-0-0-h12/1-------------------|
-4-4-4-4--4-4-4-4-4-4-7-7-7-7-0-0-0-0-h12/1---0-0-0-0-h12/1-------------------|   x2


Bridge:

-----------------------------------------------------------------------------|
-----------------------------------------------------------------------------|
-----------------------------------------------------------------------------|
-11-----12-----14------16----------------------------------------------------|
-11-----12-----14------16----------------------------------------------------|
-11-----12-----14------16----------------------------------------------------|

-----------------------------------------------------------------------------|
-----------------------------------------------------------------------------|
-----------------------------------------------------------------------------|
-12-----12-----14------16-16--16-16--16-16--16-16--16--16--16/1--------------|
-12-----12-----14------16-16--16-16--16-16--16-16--16--16--16/1--------------|
-12-----12-----14------16-16--16-16--16-16--16-16--16--16--16/1--------------|


                (Wait a seconde)


Bridge:

------------------------------------------------------------------------------|
------------------------------------------------------------------------------|
------------------------------------------------------------------------------|
-4x----4x----4x--4x--4x-/1----------------------------------------------------|
-4x----4x----4x--4x--4x-/1----------------------------------------------------|
-4x----4x----4x--4x--4x-/1----------------------------------------------------|


Chorus:

------------------------------------------------------------------------------|
------------------------------------------------------------------------------|
------------------------------------------------------------------------------|
-4-4-4-4--4-4-4-4-4-4-7-7-7-7-0-0-0-0--0-0-0-0-0-0-7-7-7-7--------------------|
-4-4-4-4--4-4-4-4-4-4-7-7-7-7-0-0-0-0--0-0-0-0-0-0-7-7-7-7--------------------|
-4-4-4-4--4-4-4-4-4-4-7-7-7-7-0-0-0-0--0-0-0-0-0-0-7-7-7-7--------------------|

------------------------------------------------------------------------------|
------------------------------------------------------------------------------|
------------------------------------------------------------------------------|
-4-4-4-4--4-4-4-4-4-4-7-7-7-7-0-0-0-0-h12/1---0-0-0-0-h12/1-------------------|
-4-4-4-4--4-4-4-4-4-4-7-7-7-7-0-0-0-0-h12/1---0-0-0-0-h12/1-------------------|
-4-4-4-4--4-4-4-4-4-4-7-7-7-7-0-0-0-0-h12/1---0-0-0-0-h12/1-------------------|   x3


Chorus/End:

------------------------------------------------------------------------------|
------------------------------------------------------------------------------|
------------------------------------------------------------------------------|
-4-4-4-4--4-4-4-4-4-4-7-7-7-7-0-0-0-0--0-0-0-0-0-0-7-7-7-7--------------------|
-4-4-4-4--4-4-4-4-4-4-7-7-7-7-0-0-0-0--0-0-0-0-0-0-7-7-7-7--------------------|
-4-4-4-4--4-4-4-4-4-4-7-7-7-7-0-0-0-0--0-0-0-0-0-0-7-7-7-7--------------------|

------------------------------------------------------------------------------|
------------------------------------------------------------------------------|
------------------------------------------------------------------------------|
-4-4-4-4--4-4-4-4-4-4-7-7-7-7-------------------------------------------------|
-4-4-4-4--4-4-4-4-4-4-7-7-7-7-------------------------------------------------|
-4-4-4-4--4-4-4-4-4-4-7-7-7-7-------------------------------------------------|





Comments


Popular A tabs & chords
6 Oclock At A Tube Stop Bass Tabs
Bad Idea Bass Tabs
Going Down Bass Tabs
Hi-fi Serious Bass Tabs
Nothing 2 Bass Tabs
Starbucks 2 Bass Tabs
Nothing Chords
Here We Go Again (I Love Lake Tahoe) Tabs
Pacific Ocean Blue Tabs
W.D.Y.C.A.I Tabs


Song lyrics



↑ Back to top | Tablatures and chords are parodies/interpretations of the original songs. You may use it for private study, scholarship, research or language learning purposes only
© 2014 AZChords.com Contact us | Privacy policy | DMCA | Add/correct tabs | Request tabs | Top 50 tabs