» »

Nothing Bass tabs (ver.2)

Artists:  A B C D E F G H I J K L M N O P Q R S T U V W X Y Z # 

Nothing Bass tabs (ver.2)

A
Rating:
4/5 (4 votes)

Hard to play? Try these video lessons and learn fast.
                -------------------------------------------------------------------------------
			     NOTHING - A
-------------------------------------------------------------------------------


Tuning: Standard 4 String EADG

I swear everyone else hears this song differently to me! I reckon maybe someone with a 5 
ought to tab this....

5/19 = slide up from 5th fret to 19th
19\5 = slide down from 19th fret to 5th
5/19\5 = slide up then down from 5th fret to 19th and back

Intro
G--------------------------------------------------------------------------|
D--------------------------------------------------------------------------|
A---------------5555-55555--------------------5555/19\5-5555/19\5-  <--'19-|s
E-2222-2222-555------------555-22222-22222-555-----------------------------|

G--------------------------------------------------------------------------|
D--------------------------------------------------------------------------|
A---------------5555-55555--------------------5555/19\5-5555/19\5-  <--'19-|s
E-2222-2222-555------------555-22222-22222-555-----------------------------|

Verse -there's lots of twiddly stuff here- improvise with octaves and stuff
G---------------------------------------------------------|
D---------------------------------------------------------|
A---------------------------55555555555555555555555555555-|
E-2222222222222222222222222-------------------------------|

Pre Chorus
G---------------------------------------------------|
D---------------------------------------------------|
A-4444444444-5555555555-777777777-000000000000------|
E----------------------------------------------4444-|

G---------------------------------------------------------------------------|
D---------------------------------------------------------------------------|
A-4444444444-5555555555-777777777-999999999999------------------------------|
E----------------------------------------------14\2--- <- '14' not 1 then 4-|

Chorus
G--------------------------------------------------------------------------|
D--------------------------------------------------------------------------|
A---------------5555-55555--------------------5555/19\5-5555/19\5-  <--'19-|s
E-2222-2222-555------------555-22222-22222-555-----------------------------|

G--------------------------------------------------------------------------|
D--------------------------------------------------------------------------|
A---------------5555-55555--------------------5555/19\5-5555/19\5-  <--'19-|s
E-2222-2222-555------------555-22222-22222-555-----------------------------|

Verse -there's lots of twiddly stuff here- improvise with octaves and stuff
G---------------------------------------------------------|
D---------------------------------------------------------|
A---------------------------55555555555555555555555555555-|
E-2222222222222222222222222-------------------------------|

Pre Chorus
G---------------------------------------------------------------------------|
D---------------------------------------------------------------------------|
A-4444444444-5555555555-777777777-999999999999------------------------------|
E----------------------------------------------14\2--- <- '14' not 1 then 4-|

Chorus
G--------------------------------------------------------------------------|
D--------------------------------------------------------------------------|
A---------------5555-55555--------------------5555/19\5-5555/19\5-  <--'19-|s
E-2222-2222-555------------5-5-22222-22222-5-5-----------------------------|

G--------------------------------------------------------------------------|
D--------------------------------------------------------------------------|
A---------------5555-55555--------------------5555/19\5-5555/19\5-  <--'19-|s
E-2222-2222-555------------5-5-22222-22222-5-5-----------------------------|

Bridge
G-----------------------------------------------------|
D-----------------------------------------------------|
A-4444444444-5555555555-777777777-999999999999--------|
E-----------------------------------------------------|

G-------------------------------------------------pause------------|
D-------------------------------------------------pause------------|
A-4444444444-5555555555-777777777-99-99-99-9-9-9--pause------------|
E-------------------------------------------------pause--2-2-222---|

Chorus
G--------------------------------------------------------------------------|
D--------------------------------------------------------------------------|
A---------------5555-55555--------------------5555/19\5-5555/19\5-  <--'19-|s
E-2222-2222-555------------555-22222-22222-555-----------------------------|

G--------------------------------------------------------------------------|
D--------------------------------------------------------------------------|
A---------------5555-55555--------------------5555/19\5-5555/19\5-  <--'19-|s
E-2222-2222-555------------555-22222-22222-555-----------------------------|

G--------------------------------------------------------------------------|
D--------------------------------------------------------------------------|
A---------------5555-55555--------------------5555/19\5-5555/19\5-  <--'19-|s
E-2222-2222-555------------555-22222-22222-555-----------------------------|

G--------------------------------------------- NOTHING! NOTHING!
D--------------------------------------------- NOTHING! NOTHING!
A---------------5555-55555-------------------- NOTHING! NOTHING!
E-2222-2222-555------------555-22222-22222-555 NOTHING! NOTHING!

=========================================================================
            
Hard to play? Try these video lessons and learn fast. | Correct




comments powered by Disqus
↑ Back to top | Tablatures and chords are parodies/interpretations of the original songs. You may use it for private study, scholarship, research or language learning purposes only