>
 >
 >
Here We Go Again (I Love Lake Tahoe)

Here We Go Again (I Love Lake Tahoe) Guitar Tabs

A - Here We Go Again (I Love Lake Tahoe) chords, tabs, tablatures, lyrics

Guitar lessons | Add/correct | Request | Top 50 tabs Artists:  A B C D E F G H I J K L M N O P Q R S T U V W X Y Z 0-9

Here We Go Again (I Love Lake Tahoe) Guitar Tabs – A

CD, Sheet music, Poster

Do you like Here We Go Again (I Love Lake Tahoe)? Share with your friends now
Tabs
-------------------------------------------------------------------------------
-------------------------------------------------------------------------------

Great song so here it is!! Enjoi.....

Tuning: Standard (EADGBe)

Chords used in the song
  E5  E5/B    A5  A#5   E    B5   C5  C5/B   G5
e|----------------------0----------------------------------------------------|
B|----------------------0----------------------------------------------------|
G|9----9----------------1----4----5----5-------------------------------------|
D|9----9------7----8----2----4----5----5-----5-------------------------------|
A|7----7------7----8----2----2----3----2-----5-------------------------------|
E|-----7------5----6----0--------------------3-------------------------------|

Intro
e|---------------------------------------------------------------------------|
B|---------------------------------------------------------------------------|
G|9-9-9-9-9-9-9999--9-9-9-9-9-9-9-9999---------------------------------------|
D|9-9-9-9-9-9-9999--9-9-9-9-9-9-9-9999---------------------------------------|
A|7-7-7-7-7-7-7777--7-7-7-7-7-7-7-7777---------------------------------------|
E|------------------7-7-7-7-7-7-7-7777---------------------------------------|

Verse - Clean Electric Guitar
E5                 E5/B                   A5
Four long years ago, searching for the snow
                       A#5
We found the Tahoe lakes, just about the perfect place
E5                 E5/B                             A5
50 Runs at 'Heavenly', and the nights at 'Squaw Valley'
                              A#5              N.C.
Yeah, the trees are pretty wide, "That's where Sonny bono died"
E5                          E5/B                                 A5
All is quiet on New Years day, think I'll try and impress my mates
                       A#5
So I jump into the lake, I won't do that again...

okay i think this is keyboard but here it is for Guitar. 2
All is quiet on New Years day...
e|---------------------------------------------------------------------------|
B|---------------------------------------------------------------------------|
G|----9--------9----------9--------9----------7--------7-----8888888888888888|
D|--9---9--------9------9---9--------9------7---7--------7---8888888888888888|
A|7----------7-----------------------------------------------xxxxxxxxxxxxxxxx|
E|--------------------7----------7--------5----------5-------6666666666666666|

Chorus - Distorted Guitar
E                    B5
Naa Naa Naa Na Na Na Naa Naa (Here we go again) 
             A5                   A#5
Naa Na Na Na Naa Naa Naa Na Na Na Naaa (Here we go again)
 E                    B5
Naa Naa Naa Na Na Na Naa Naa (Here we go again) 
             A5                   A#5
Naa Na Na Na Naa Naa Naa Na Na Na Naaa

Interlude
e|---------------------------------------------------------------------------|
B|---------------------------------------------------------------------------|
G|9-9-9-9-9-9-9-9--------9-9-9-9-9-9-9999------------------------------------|
D|7-7-7-7-7-7-7-7--------7-7-7-7-7-7-7777------------------------------------|
A|7-7-7-7-7-7-7-7--------7-7-7-7-7-7-7777------------------------------------|
E|-----------------(x3)------------------------------------------------------|

Verse
E5                        E5/B                          A5              A#5
The south shore has the lot, and last month Dave Lee Roth did a solo spot
                              E5                          E5/B
And some German bloke got shot, every year we say the same
                                     A5                           A#5
"Try somewhere different for a change", but we jump on to the plane

Yeah, here we go again...

Gtr.2 - Every year we say the same....
e|---------------------------------------------------------------------------|
B|---------------------------------------------------------------------------|
G|----9--------9----------9--------9----------7--------7-----8-8-8-8-8-8-8-8-|
D|--9---9--------9------9---9--------9------7---7--------7---8-8-8-8-8-8-8-8-|
A|7----------7-----------------------------------------------x-x-x-x-x-x-x-x-|
E|--------------------7----------7--------5----------5-------6-6-6-6-6-6-6-6-|

Chorus - as before

Solo
e|---------------------------------------------------------------------------|
B|---------------------------------------------------------------------------|
G|----------7/9------------7---7/9\7---7/9--7---------------------5/7--------|
D|----5/7\5-----5--5-----------------9--------9--7--/9------5/7\5-----5--5---|
A|7-7----------------7---7---7--------------------------7-7----------------7-|
E|---------------------------------------------------------------------------|

                                             |------(x3)-------|
e|15p12--15/17\15-12-15/17---15p12--12-12------------------------------------|
B|----------------------------------10-10------------------------------------|
G|-----------------------------------------------------7/9-------------------|
D|-----------------------------------------------5/7\5-----5-5---------------|
A|-------------------------------------------7-7---------------7-------------|
E|---------------------------------------------------------------------------|

Second gtr plays these chords underneath the solo C5 then C5/B then E5 then G5
you can work out when and where

then play this to end the solo
e|---------------------------------------------------------------------------|
B|---------------------------------------------------------------------------|
G|9-9-9-9-9-9-9-9-9-9-9-9-9--------------------------------------------------|
D|7-7-7-7-7-7-7-7-7-7-7-7-7--------------------------------------------------|
A|7-7-7-7-7-7-7-7-7-7-7-7-7--------------------------------------------------|
E|---------------------------------------------------------------------------|

2 bar rest then play Chorus x 2

Outro
e|---------------------------------------------------------------------------|
B|---------------------------------------------------------------------------|
G|9-9-9-9-9-9-9-9------------------------------------------------------------|
D|7-7-7-7-7-7-7-7------------------------------------------------------------|
A|7-7-7-7-7-7-7-7------------------------------------------------------------|
E|-----------------(x16)-----------------------------------------------------|

| /  slide up
| \  slide down
| h  hammer-on
| p  pull-off
| ~  vibrato
| +  harmonic
| x  Mute note
===============================================================================





Comments


Popular A tabs & chords
6 Oclock At A Tube Stop Bass Tabs
Get Way Bass Tabs
Going Down Bass Tabs
Something's Going On Bass Tabs
Good Time Tabs
Hey Tabs
Nothing 2 Tabs
Rush Song 1 Tabs
Something's Going On Tabs
Took It Away Tabs


Song lyrics



↑ Back to top | Tablatures and chords are parodies/interpretations of the original songs. You may use it for private study, scholarship, research or language learning purposes only
© 2014 AZChords.com Contact us | Privacy policy | DMCA | Add/correct tabs | Request tabs | Top 50 tabs