» »

Get Way Bass tabs (ver.1)

Artists:  A B C D E F G H I J K L M N O P Q R S T U V W X Y Z # 

Get Way Bass tabs (ver.1)

A
Rating:
0/5 (0 votes)

Hard to play? Try these video lessons and learn fast.
                Band - A
Song - Get way

|--------------------
|--------------------
|---7-7---7---7---7--
|-------0---0---0---- 

This is when you hear a barking sound. the bass only plays these.
|-----------------
|-----------------
|-----------------
|-0----0----0----- 

Chorus
|--------------------------------------------------
|----9-8-7----------5------------------------------
|---------7--5-6-7------9-8-7-------5--------------
|--0------------------0-------5-6-7---7-6-5-3-0---- 

Play this a few times, then play
|---------------------
|---------------------
|-----------6-7-8-10--
|---7-6-5-3----------- 

Bridge 
|-----------------------------------------
|-----------------------------------------
|-----------------------------------------
|--0------6---9-5----3--0--11----6--9-5--- 
 
|-----------------------
|-----------------------
|----7--7-6-5-----------
|-------------5--5-6-7-- 

End
|------------
|------------
|--7--7-6-5--
|------------
            
Hard to play? Try these video lessons and learn fast. | Correct




comments powered by Disqus
↑ Back to top | Tablatures and chords are parodies/interpretations of the original songs. You may use it for private study, scholarship, research or language learning purposes only