» »

/0-9/999-tabs-36945.html

»

No Pity Tabs (ver.1)

Artists:  A B C D E F G H I J K L M N O P Q R S T U V W X Y Z # 

No Pity Tabs (ver.1)

999
Rating:
5/5 (1 vote)

Hard to play? Try these video lessons and learn fast.
                No Pity by 999
(standard tuning)

                  | chorus
|-----------------|-------------------------|
|-----------------|-------------------------|
|-----------------|-------------------------|
|-----------------|-7--5-------7------------|
|-----------------|-5--3--5----5-7--7-7-7-7-|
|-0-0-0-0-0-0-0-0-|-------3------5--5-5-5-5-|
do that a few times.

|---------|
|---------|
|--4p2p0--|
|---------|
|---------|
|---------|
it went too fast to count all the times you 
do that so just play it by ear and then...

|-------|
|-------|
|--4/9--|  chorus
|-------|
|-------|
|-------|


|------------------------------------|
|------------------------------------|
|------------------------------------|
|--------------7---------------------|
|--------------5--7--7-7-7--7-7-7-7--|
|-0-0-0-0-0-0-----5--5-5-5--5-5-5-5--|
keep doing that until it fades out at the end.
            
Hard to play? Try these video lessons and learn fast. | Correct




comments powered by Disqus
↑ Back to top | Tablatures and chords are parodies/interpretations of the original songs. You may use it for private study, scholarship, research or language learning purposes only