» »

/0-9/999-tabs-36945.html

»

Homicide Tabs (ver.1)

Artists:  A B C D E F G H I J K L M N O P Q R S T U V W X Y Z # 

Homicide Tabs (ver.1)

999
Rating:
5/5 (1 vote)

Hard to play? Try these video lessons and learn fast.
                Intro:
  E          D          A             E
E----|-----|----|-----|------|------|-----------------|----------------|
B----|--10-|----|-8-8-|--7-5-|-7-5--|-----------------|----------------|
G-9--|-----|--7-|-7-7-|--6-6-|-6-6--|-----------------|----------------|
D----|-----|----|-----|------|------|-----------------|----------------|
A----|-----|----|-----|------|------|-2-2-4-4-2-2-4-4-|2-2-4-4-2-2-4-4-|
E----|-----|----|-----|------|------|-0-0-0-0-0-0-0-0-|0-0-0-0-0-0-0-0-|

Verse/Chorus:
  E                                   D         
E-----------------|-----------------|-2--2--2---|-3-3-2--0--2--|
B-----------------|-----------------|-3--3--3---|-3-3-3--3--3--|
G-----------------|-----------------|-2--2--2---|-2-2-2--2--2--|
D-----------------|-----------------|-0--0--0---|-0-0-0--0--0--|
A-2-2-4-4-2-2-4-4-|-2-2-4-4-2-2-4-4-|-----------|--------------|
E-0-0-0-0-0-0-0-0-|-0-0-0-0-0-0-0-0-|-----------|--------------|

 A                                   E
E-----------------|-----------------|-----------------|----------------|
B-----------------|-----------------|-----------------|----------------|
G-----------------|-----------------|-----------------|----------------|
D-2-2-4-4-2-2-4-4-|-2-2-4-4-2-2-4-4-|-----------------|----------------|
A-0-0-0-0-0-0-0-0-|-0-0-0-0-0-0-0-0-|-2-2-4-4-2-2-4-4-|2-2-4-4-2-2-4-4-|
E-----------------|-----------------|-0-0-0-0-0-0-0-0-|0-0-0-0-0-0-0-0-|

Bridge:
  Bm      D       A      E                Bm      D      A       E
E-2-----|-2-----|-0-----|---------------|-------|-2----|-0-----|--------|
B-3-----|-3-----|-2-----|---------------|-------|-3----|-2-----|--------|
G-4-----|-2-----|-2-----|---------------|-------|-2----|-2-----|--------|
D-4-----|-0-----|-2-----|-2-----------0-|-------|-0----|-2-----|-2------|
A-2-----|-------|-0-----|-2---------2---|-2-----|------|-0-----|-2------|
E-------|-------|-------|-0---0-0-3-----|-------|------|-------|-0------|

Solo:
  E                D                   A
E---------|------|-----------|-------|---------|------|
B---------|------|-----------|-------|---------|------|
G-9p7-9---|------|-11p9-11---|-------|-9p7-9---|------|
D---------|------|-----------|-------|---------|------|
A---------|------|-----------|-------|---------|------|
E---------|------|-----------|-------|---------|------|

  E                                                  E
E-----------12--------|----12---------12-----------|--------|-------------|
B--------------12-----|-12---------12--------12-12-|--------|-------------|
G-9p7-9--14b------14b-|--------14b-------14b-------|--------|-------------|
D---------------------|----------------------------|-14-----|----14--14---|
A---------------------|----------------------------|--------|-------------|
E---------------------|----------------------------|--------|-------------|

  D                                         A
E----------|------12-----------12--------|-15b-----15b-|-15b-15b-15b-15b--|
B----------|---------12-----12--------12-|-------------|------------------|
G-12h14----|--14b-------14b-------14b----|-------------|------------------|
D----------|-----------------------------|-------------|------------------|
A----------|-----------------------------|-------------|------------------|
E----------|-----------------------------|-------------|------------------|

  E
E-12-------|-----------------------|------|
B----------|-15p12-----------------|------|
G----------|-------14-12-14b-------|------|
D----------|-----------------14-12-|-14---|
A----------|-----------------------|------|
E----------|-----------------------|------|

There are some licks in the verse, 
but i haven't transcribed them, 
because i don't think they are that important.
Enjoy!
            
Hard to play? Try these video lessons and learn fast. | Correct




comments powered by Disqus
↑ Back to top | Tablatures and chords are parodies/interpretations of the original songs. You may use it for private study, scholarship, research or language learning purposes only