» »

/0-9/999-tabs-36945.html

»

999, Emergency Tabs (ver.1)

Artists:  A B C D E F G H I J K L M N O P Q R S T U V W X Y Z # 

Emergency Tabs (ver.1)

999 Tabs
Rating:
4/5 (2 votes)
Emergency lessons Tabs too difficult? Try these video lessons and learn fast
                Intro/Verses:

E|----------------------|
B|----------------------|
G|--2----2----2----2----|
D|--2----2----2----2----|
A|--0----0----0----0----|
E|----------------------|  etc...


Prechorus:

E|-----------------------------------|
B|-------12-------11-----10----9-----|
G|-----------------------------------|
D|---9-9----9-8-8----7-7----6-6---6--|
A|-----------------------------------|
E|-----------------------------------|

As for the chorus, I'm clueless. I'll submit a Bass tab for this one later.
            
Submit corrections

comments powered by Disqus
↑ Back to top | 999 Tabs for Emergency. Lyrics for acoustic guitar and electric guitar. Tablatures and chords are parodies/interpretations of the original songs. You may use it for private study, scholarship, research or language learning purposes only