>
 >
Injection

Injection Guitar Tabs

98 Mute - Injection chords, tabs, tablatures, lyrics

Guitar lessons | Add/correct | Request | Top 50 tabs Artists:  A B C D E F G H I J K L M N O P Q R S T U V W X Y Z 0-9

Injection Guitar Tabs – 98 Mute

CD, Sheet music, Poster

Do you like Injection? Share with your friends now
Tabs

I couldn't find a tab for this song, or barely any 98 mute songs, so I tabbed it myself.


!= let ring
b= bend


INTRO:

 e|--------------------------------------|
 B|--------------------------------------|
 G|----------7-----7-11-11-11-11---------|
 D|--9-9-9-9-7-99--7-11-11-11-11-7-79-7--|
 A|--9-9-9-9-5-99--5--9--9--9--9-7-79-7--|
 E|--7-7-7-7---77----------------5-57-5--|

 e|--------------------------------------|
 B|--------------------------------------|
 G|----------7-----7-11-11-11-11---------|
 D|--9-9-9-9-7-99--7-11-11-11-11-7-77-7--|
 A|--9-9-9-9-5-99--5--9--9--9--9-7-77-7--|
 E|--7-7-7-7---77----------------5-55-5--|

 e|--------------------------------------|
 B|--------------------------------------|
 G|----------7-----7-11-11-11-11---------|
 D|--9-9-9-9-7-99--7-11-11-11-11-7-79-7--|
 A|--9-9-9-9-5-99--5--9--9--9--9-7-79-7--|
 E|--7-7-7-7---77----------------5-57-5--|

 e|-------------------------------------------|
 B|-------------------------------------------|
 G|----------7-----7-11-11-11-11-11-11-11-11--|
 D|--9-9-9-9-7-99--7-11-11-11-11-11-11-11-11--|
 A|--9-9-9-9-5-99--5--9--9--9--9--9--9--9--9--|
 E|--7-7-7-7---77-----------------------------|
 
VERSE 1:

-is almost the same as the intro
-almost everything is palm muted
-the first power chord is not palm muted
-the fourth and last section of the powerchord riff with
 the last power chord (repeated 8 times) is not palm
 muted
-in the last section, after repeating the power chord
 four times, a pick slide on the 5th string comes in

CHORUS:

 e|-----------------------------------|
 B|-----------------------------------|
 G|--------------7---7-7-7-7-7-7-9-7--|
 D|--9-9-9-9-9-9-7-9-7-7-7-7-7-7-9-7--|
 A|--9-9-9-9-9-9-5-9-5-5-5-5-5-5-7-5--|
 E|--7-7-7-7-7-7---7------------------|

 e|-------------------------------------------|
 B|-------------------------------------------|
 G|--9-9-9-9-9-9-9-9-11-11-11-11-11-11-11-11--|
 D|--9-9-9-9-9-9-9-9-11-11-11-11-11-11-11-11--|
 A|--7-7-7-7-7-7-7-7--9--9--9--9--9--9--9--9--|
 E|-------------------------------------------|


 e|-----------------------------------|
 B|-----------------------------------|
 G|--------------7---7-7-7-7-7-7-9-7--|
 D|--9-9-9-9-9-9-7-9-7-7-7-7-7-7-9-7--|
 A|--9-9-9-9-9-9-5-9-5-5-5-5-5-5-7-5--|
 E|--7-7-7-7-7-7---7------------------|

 e|--------------------------------------|
 B|--------------------------------------|
 G|--9-9-9-9-9-9-9-9-11---1111-11-11-11--|
 D|--9-9-9-9-9-9-9-9-11---1111-11-11-11--|
 A|--7-7-7-7-7-7-7-7--9----9-9--9--9--9--|
 E|--------------------------------------|


 e|-------------------------------|
 B|-------------------------------|
 G|----------------7-7----7-7--7--|
 D|--9-9----9-9--9-7-7----7-7--7--|
 A|--9-9----9-9--9-5-5----5-5--5--|
 E|--7-7----7-7--7----------------|

 e|-----------------------------------------|
 B|-----------------------------------------|
 G|--9-9----9-9--9-11-11-11-11-11-11-11-11--|
 D|--9-9----9-9--9-11-11-11-11-11-11-11-11--|
 A|--7-7----7-7--7--9--9--9--9--9--9--9--9--|
 E|-----------------------------------------|

 e|-----------------------------------|
 B|-----------------------------------|
 G|--------------7---7-7-7-7-7-7-9-7--|
 D|--9-9-9-9-9-9-7-9-7-7-7-7-7-7-9-7--|
 A|--9-9-9-9-9-9-5-9-5-5-5-5-5-5-7-5--|
 E|--7-7-7-7-7-7---7------------------|
                                        
 e|-------------------------------------------|
 B|-------------------------------------------|
 G|--9-9-9-9-9-9-9-9-11-11-11-11-11-11-11-11--|
 D|--9-9-9-9-9-9-9-9-11-11-11-11-11-11-11-11--|
 A|--7-7-7-7-7-7-7-7--9--9--9--9--9--9--9--9--|
 E|-------------------------------------------|
                                 
VERSE 2:                               
                                        _
 e|-----------------------------------|  \
 B|-----------------------------------|   \
 G|-----------------------------------|    \__ 3 times
 D|--9--------------------------------|    /
 A|--9--------------------------------|   /
 E|--7--------------------------------| _/
                                       
(guitar 1)                               
 e|-------------------------------------------|
 B|-------------------------------------------|
 G|------------------11-11-11-11-11-11-11-11--|
 D|--9!--------------11-11-11-11-11-11-11-11--|
 A|--9!---------------9--9--9--9--9--9--9--9--|
 E|--7!---------------------------------------|
                                     
(guitar 2)                               
 e|-----------------------------------|
 B|-----------------------------------|
 G|-----------------------------------|
 D|-----------------------------------|
 A|------------------ pick slide -----|
 E|-----------------------------------|
                                         
SOLO:

 e|----------------------------|
 B|----------------------------|
 G|----3-5-6-5-3---------3-2!--|
 D|--3-----------6-5!----------|
 A|----------------------------|
 E|----------------------------|
                             
 e|--2-7-9-10-9-7-5-4!----7-7b!---6!---7!--|
 B|----------------------------------------|
 G|----------------------------------------|
 D|----------------------------------------|
 A|----------------------------------------|
 E|----------------------------------------| 

BRIDGE:

(guitar 1)                                        _
 e|-----------------------------------|            \
 B|-----------------------------------|             \
 G|--------------7---7-7-7-7-7-7-9-7--|              \
 D|--9-9-9-9-9-9-7-9-7-7-7-7-7-7-9-7--|               \
 A|--9-9-9-9-9-9-5-9-5-5-5-5-5-5-7-5--|                \
 E|--7-7-7-7-7-7---7------------------|                 \
                                                         |---- 2 times
 e|-------------------------------------------|         /
 B|-------------------------------------------|        /
 G|--9-9-9-9-9-9-9-9-11-11-11-11-11-11-11-11--|       /
 D|--9-9-9-9-9-9-9-9-11-11-11-11-11-11-11-11--|      /
 A|--7-7-7-7-7-7-7-7--9--9--9--9--9--9--9--9--|     /
 E|-------------------------------------------|   _/

(guitar 2)- play on second repeat of guitar 1                               
 e|-----------------------------------|
 B|-----------------------------------|
 G|-----------------------------------|
 D|-----------------------------------|
 A|------------------ pick slide -----|
 E|-----------------------------------|

ENDING:

 e|-----------------------------------|
 B|-----------------------------------|
 G|--------------7---7-7-7-7-7-7-9-7--|
 D|--9-9-9-9-9-9-7-9-7-7-7-7-7-7-9-7--|
 A|--9-9-9-9-9-9-5-9-5-5-5-5-5-5-7-5--|
 E|--7-7-7-7-7-7---7------------------|

 e|-------------------------------------------|
 B|-------------------------------------------|
 G|--9-9-9-9-9-9-9-9-11-11-11-11-11-11-11-11--|
 D|--9-9-9-9-9-9-9-9-11-11-11-11-11-11-11-11--|
 A|--7-7-7-7-7-7-7-7--9--9--9--9--9--9--9--9--|
 E|-------------------------------------------|


 e|-----------------------------------|
 B|-----------------------------------|
 G|--------------7---7-7-7-7-7-7-9-7--|
 D|--9-9-9-9-9-9-7-9-7-7-7-7-7-7-9-7--|
 A|--9-9-9-9-9-9-5-9-5-5-5-5-5-5-7-5--|
 E|--7-7-7-7-7-7---7------------------|

 e|---------------------------------------|
 B|---------------------------------------|
 G|--9-9-9-9-9-9-9-9-11---1111--11-11-11--|
 D|--9-9-9-9-9-9-9-9-11---1111--11-11-11--|
 A|--7-7-7-7-7-7-7-7--9----9-9---9--9--9--|
 E|---------------------------------------|

 e|----------------------------------------|
 B|----------------------------------------|
 G|--11---1111--11-11-11--11--9--7---------|
 D|--11---1111--11-11-11--11--9--7--11--9--|
 A|---9----9-9---9--9--9---9--7--5--11--9--|
 E|----------------------------------9--7--|





ORDER:

Intro
Verse 1
Chorus
Intro
Verse 2
Chorus(last bit - only play each chord once)
Solo
Bridge
Intro
Ending

Please e-mail me with any corrections, suggestions, tips, questions, etc...

98 MUTE is awesome!!!





Comments


Popular 98 Mute tabs & chords
A. C. A. B Bass Tabs
A. C. A. B 1 Bass Tabs
Dreams Bass Tabs
Dreams 1 Bass Tabs
Picture This 1 Bass Tabs
Slow Motion Riot Bass Tabs
Small Minds Bass Tabs
Watching Over Me Bass Tabs
M.A.D Tabs
Slow Motion Riot 1 Tabs


Song lyrics



↑ Back to top | Tablatures and chords are parodies/interpretations of the original songs. You may use it for private study, scholarship, research or language learning purposes only
© 2014 AZChords.com Contact us | Privacy policy | DMCA | Add/correct tabs | Request tabs | Top 50 tabs