>
 >
Satisfied

Satisfied Bass Tabs

8stops7 - Satisfied chords, tabs, tablatures, lyrics

Guitar lessons | Add/correct | Request | Top 50 tabs Artists:  A B C D E F G H I J K L M N O P Q R S T U V W X Y Z 0-9

Satisfied Bass Tabs – 8stops7

CD, Sheet music, Poster

Do you like Satisfied? Share with your friends now
Bass TabsTabs
Title        : Satisfied--From In Moderation
Artist/Group : 8 Stops 7
Info         : 4 Strings Standard Bass (Meter=4/4, Key=C, Tempo=100)
Created by   : slickdog
Drop D tune


wait for drums and guitar:  
G---------------------|
D---------------------|
A---------------------|
D-0-0-0-0-0-0-0-0-0-0-|

  
  
verse part 1:                               
G-------------------------||-
D-------------------------||-
A---5-------5-----------5-||-
D-------0-------0---3h5---||-
                               
  
  
  
verse part 2            2nd time end  
G---------------------||------------|
D---------------------||------------|
A-------5-----------5-||-----------4|
D---0-0---0-5-0-5-6---||-0-0-0-0-0--|
                          
  
  
  
Chorus:                       end on 2nd time                    
G------------------------------||---------||-
D------------------------------||---------||-
A------------------------------||---------||-
D-0-3-3--0-3-3--0-3-3--0-3-0-5-||-0-3-0-3-||-
                                                   
  
  
  
This is the break- slap on 2 and slide to 3                                      
G----------------------------------||-
D----------------------------------||-
A----------------------------------||-
D---2S/3-x---2S/3-x---2S/3-0s------||-
  

    
                                        
G---------------------------||------||-
D---------------------------||------||-
A---5-----------5-----------||------||-
D-----0-3-0-3-0---0-3-0-3-0-||-x-0P-||-
    
                                     
chorus: this is extended just listen to the song   
  
  
TABS READING GUIDE:
Note Length (above the bass line):w=whole, h=1/2, q=1/4, e=1/8, s=1/16, t=1/32, .=1.5*previous.
Fingering (below the bass line):1=index, 2=middle, 3=ring, 4=pinkie, 5=thumb.
Special Note Symbols:
   h    = hammer-on from previous note
   p    = pull off from previous note
   /or\ = slide up or down to note
   b    = bend note
   S    = slap the note with the right-hand thumb (left hand if left-handed)
   P    = pop the note with the right hand (left hand if left-handed)
   t    = tap the note with the right hand (left hand if left-handed)
   H    = harmonic
   x    = muted note
   r    = a rest.





Comments


Popular 8stops7 tabs & chords
Question Everything Bass Tabs
Questiong Everything Bass Tabs
Empty Chords
Question Everything Chords
Uninspired Chords
Esteem Tabs
Good Enough Tabs
Question Everything Tabs
Regression Tabs
Uninspired Tabs


Song lyrics



↑ Back to top | Tablatures and chords are parodies/interpretations of the original songs. You may use it for private study, scholarship, research or language learning purposes only
© 2014 AZChords.com Contact us | Privacy policy | DMCA | Add/correct tabs | Request tabs | Top 50 tabs