» » »

8stops7, Questiong Everything Bass tabs (ver.1)

Artists:  A B C D E F G H I J K L M N O P Q R S T U V W X Y Z # 

Questiong Everything Bass tabs (ver.1)

8stops7 Tabs
Rating:
0/5 (0 votes)
Hard to play? Try these video lessons and learn fast.
                Riff 1
G -|--------------------------------|---------|
D -|--------------------------------|---------|
A -|-3-3-3--------------------------|-3-3-1-1-|
E -|---------1-1-1---5-5-5---3-3-3--|---------|
   |               x4               |    x1   |

Riff 2
G -|---------------------------------------------------| 
D -|---------------------------------------------------| 
A -|-3-3-3-----------3-3-3-----------3-3-3-------------| 
E -|---------1-1-1-----------1-1-1-----------5-5-5---3-|

Riff 3
G -|------------------------------------------------------| 
D -|---------3-2/7-5-3---------------------3-2/7h9-5-3----| 
A -|-3-----5-----------------------3-----5----------------| 
E -|-------------------1-----1-------------------------1~-| 

Riff 4
G -|--------------------------------------------------------------------| 
D -|--------------------------------------------------------------------| 
A -|-3-3-3---3-3-3---------------------------------------------------3~-| 
E -|-----------------1-1-1---1-1-1---5-5-5---5-5-5---1-1-1---3----------| 

Riff 5
G -|---------------------------------|---------|
D -|---------------------------------|---------|
A -|-3-3-3---------------------------|-3-3-1-1-|
E -|---------1-1-1---5-5-5---3-3-3---|---------|
   |               x1                |    x1   |

Riff 6
G -|--------------------------------------------------------| 
D -|--------------------------------------------------------| 
A -|-3-3-3-----------3-3-3-----------3-3-3-----------333333-| 
E -|---------1-1-1-----------1-1-1-----------5-5-5----------|

G -|---------------------------------------------------------| 
D -|---------------------------------------------------------| 
A -|-3-3-3-----------3-3-3-----------3-3-3-----------3--3--3-| 
E -|---------1-1-1-----------1-1-1-----------5-5-5-----------| 

Song Structure:
Riff 1: 0:06	x1
Riff 2: 0:54	x1
Riff 1: 1:14	x1
Riff 2: 2:02	x1
Riff 3: 2:22	x1
Riff 4: 2:44	x1
pause : 3:06
Riff 5: 3:18	x1
Riff 6: 3:36	x1
            

comments powered by Disqus
↑ Back to top | 8stops7 Bass for Questiong Everything. Lyrics for acoustic guitar and electric guitar. Tablatures and chords are parodies/interpretations of the original songs. You may use it for private study, scholarship, research or language learning purposes only