» » »

8stops7, Not Alive Tabs (ver.1)

Artists:  A B C D E F G H I J K L M N O P Q R S T U V W X Y Z # 

Not Alive Tabs (ver.1)

8stops7 Tabs
 Rating:
4/5 (4 votes)
Not Alive lessons Tabs too difficult? Try these video lessons and learn fast
1
                8Stops7 - Not Alive

Yeah, the two different versions sound pretty much the same.

DADGBE

Intro/Verse

|-----------------------------------------------|
|-----------------------------------------------|
|-----Palm Mutes--------------------------------|
|-----------------------------------------------|
|-4-4-4-4-4---4-4-4-4-4---2-2-2-2-2---0-0-0-0-0-|
|-4-4-4-4-4---4-4-4-4-4---2-2-2-2-2---0-0-0-0-0-|
Play about 4 Times

Chorus (chords)

|----------------------------|
|----------------------------|
|----------------------------|
|--9--7--5--7----------------|
|--9--7--5--7-play-twice-----|
|--9--7--5--7----------------|

Post Chorus

Gtr 1
|----------------------------------------------|
|----------------------------------------------|
|----------------------------------------------|
|--4----3----2----1-----00000000---99999999----|
|--4----3----2----1-----00000000---99999999----|
|--4----3----2----1-----00000000---99999999----|

Gtr 2
|-----2----1----0----------------------------|
|-----2----1----0----4---3-----3-------------|
|--------------------3---2-----2--4----------|
|---------------------------------4----------|
|--------------------------------------------|
|--------------------------------------------|

Bridge

Strum out these

'It's so easy, to be near me,..'
|--------------------|
|--------------------|
|--------------------|
|--4--3--2--1--0--9--|
|--4--3--2--1--0--9--|
|--4--3--2--1--0--9--|
Play twice and strum out last chord for a while on 2nd time

Ending

|--------------------------------------------------------------------|
|--------------------------------------------------------------------|
|--------------------------------------------------------------------|
|--7H9-9-9-9---7H9-9-9-9-----7-7-7-7-7-7--5-5-5-5-5-5---5H7----------|
|--7H9-9-9-9---7H9-9-9-9-x2--7-7-7-7-7-7--5-5-5-5-5-5---5H7---repeat-|
|--7H9-9-9-9---7H9-9-9-9-----7-7-7-7-7-7--5-5-5-5-5-5---5H7----------|

Then end all on this

|--------|
|--------|
|--------|
|---4----|
|---4----|
|---4----|

Intro/Verse x 4
Chorus
Verse x 2
Chorus
Post Chorus
Bridge x 2
Verse x 2
Chorus
Ending

Yeah, this songs simple. If you have any comments or corrections, I don't want to know. I really don't care.

Chooka
            
Submit corrections

comments powered by Disqus
↑ Back to top | 8stops7 Tabs for Not Alive. Lyrics for acoustic guitar and electric guitar. 1 Tablatures and chords are parodies/interpretations of the original songs. You may use it for private study, scholarship, research or language learning purposes only