» » »

Good Enough Tabs (ver.1)

Artists:  A B C D E F G H I J K L M N O P Q R S T U V W X Y Z # 

Good Enough Tabs (ver.1)

8stops7
Rating:
0/5 (0 votes)

Hard to play? Try these video lessons and learn fast.
                8stops7 - Good Enough
Standard Tuning

Verse/Intro: (strumming not very accurate, but you get the picture!)
|--0---0-0-0---0--0---0-0-0-----0---0---0-0--0-----0-0----3-----------|
|--1---1-1-1---1--0h1-1-1-0h1---1---1---1-1--1-----1-0----3-----------|
|--0h2-2-2-0---2--2---2-2-2-----0h2-2---2-2--2p0---0-0----0-----------|
|--3---3-3-3---2--2---2-2-2-----3---3---3-3--3-----3-2----0-----------|
|--3---3-3-3---0--0---0-0-0-----3---3---3-3--3-----3-2----2-----------|
|----------------------------------------------------0----3-----------|

Chorus:
|--0--0--0--0--0---0--0-0--0---0--0-0-----0------0--------------------|
|--1--1--1--1--1---1--1-1--1---1--1-1-----0------0--------------------|
|--2--2--2--2--0h2-0--0-0--0h2-0--0-0--0--0---0--0- repeat -----------|
|--2--2--2--2--3---3--2-2--3---3--2-2--2------2-----------------------|
|--0--0--0--0--3---3--3-3--3---3--3-3--2------2-----------------------|
|--------------------------------------0------0-----------------------|

Pre-Bridge Chord: G - (320033)

Bridge:
|---0--0--0--0---0--0--0--0-------------------------------------------|
|---1--1--0--0---1--1--1--1-------------------------------------------|
|---0--0--1--1---2--2--2--2-------------------------------------------|
|---2--2--2--2---2--2--2--2-------------------------------------------|
|---3--3--2--2---0--0--0--0-------------------------------------------|
|---------0--0--------------------------------------------------------|
            
Hard to play? Try these video lessons and learn fast. | Correct




comments powered by Disqus
↑ Back to top | Tablatures and chords are parodies/interpretations of the original songs. You may use it for private study, scholarship, research or language learning purposes only