» » »

8 Stops 7, Question Everything Tabs (ver.2)

Artists:  A B C D E F G H I J K L M N O P Q R S T U V W X Y Z # 

Question Everything Tabs (ver.2)

8 Stops 7 Tabs
 Rating:
4/5 (4 votes)
Question Everything lessons Tabs too difficult? Try these video lessons and learn fast
                

* That's my attempt at rhythm, but just listen to the song 
to hear what I'm trying to represent. 


INTRO 

    C      F 
e|--3---3---3-----3-3-3-3-3--1---1---1-----1-1-1-1-1--| 
B|--5---5---5-----5-5-5-5-5--1---1---1-----1-1-1-1-1--| 
G|--5---5---5-----5-5-5-5-5--2---2---2-----2-2-2-2-2--| 
D|--3---3---3-----3-3-3-3-3--3---2---2-----2-2-2-2-2--| 
A|--3---3---3-----3-3-3-3-3--3---3---3-----3-3-3-3-3--| 
E|---------------------------1---1---1-----1-1-1-1-1--| 


VERSE 1 

    C      F 
e|--3---3---3-----3-3-3-3-3--1---1---1-----1-1-1-1-1--| 
B|--5---5---5-----5-5-5-5-5--1---1---1-----1-1-1-1-1--| 
G|--5---5---5-----5-5-5-5-5--2---2---2-----2-2-2-2-2--| 
D|--3---3---3-----3-3-3-3-3--3---2---2-----2-2-2-2-2--| 
A|--3---3---3-----3-3-3-3-3--3---3---3-----3-3-3-3-3--| 
E|---------------------------1---1---1-----1-1-1-1-1--| 
    Ever since I was a child... 

    Am *(see alternative Am at bottom) 
     G 
e|--5---5---5-----5-5-5-5-5--3---3---3-----3-3-3-3-3--| 
B|--5---5---5-----5-5-5-5-5--3---3---3-----3-3-3-3-3--| 
G|--5---5---5-----5-5-5-5-5--5---5---4-----4-4-4-4-4--| 
D|--7---7---7-----7-7-7-7-7--5---5---5-----5-5-5-5-5--| 
A|--7---7---7-----7-7-7-7-7--5---5---5-----5-5-5-5-5--| 
E|--5---5---5-----5-5-5-5-5--3---3---3-----3-3-3-3-3--| 
  

    C      F 
e|--3---3---3-----3-3-3-3-3--1---1---1-----1-1-1-1-1--| 
B|--5---5---5-----5-5-5-5-5--1---1---1-----1-1-1-1-1--| 
G|--5---5---5-----5-5-5-5-5--2---2---2-----2-2-2-2-2--| 
D|--3---3---3-----3-3-3-3-3--3---2---2-----2-2-2-2-2--| 
A|--3---3---3-----3-3-3-3-3--3---3---3-----3-3-3-3-3--| 
E|---------------------------1---1---1-----1-1-1-1-1--| 
    You take some and give less... 

    Am      G 
e|--5---5---5-----5-5-5-5-5--3---3---3-----3-3-3-3-3--| 
B|--5---5---5-----5-5-5-5-5--3---3---3-----3-3-3-3-3--| 
G|--5---5---5-----5-5-5-5-5--5---5---4-----4-4-4-4-4--| 
D|--7---7---7-----7-7-7-7-7--5---5---5-----5-5-5-5-5--| 
A|--7---7---7-----7-7-7-7-7--5---5---5-----5-5-5-5-5--| 
E|--5---5---5-----5-5-5-5-5--3---3---3-----3-3-3-3-3--| 


    C      F 
e|--3---3---3-----3-3-3-3-3--1---1---1-----1-1-1-1-1--| 
B|--5---5---5-----5-5-5-5-5--1---1---1-----1-1-1-1-1--| 
G|--5---5---5-----5-5-5-5-5--2---2---2-----2-2-2-2-2--| 
D|--3---3---3-----3-3-3-3-3--3---2---2-----2-2-2-2-2--| 
A|--3---3---3-----3-3-3-3-3--3---3---3-----3-3-3-3-3--| 
E|---------------------------1---1---1-----1-1-1-1-1--| 
    As I ask a simple question... 

    Am      G 
e|--5---5---5-----5-5-5-5-5--3---3---3-----3-3-3-3-3--| 
B|--5---5---5-----5-5-5-5-5--3---3---3-----3-3-3-3-3--| 
G|--5---5---5-----5-5-5-5-5--5---5---4-----4-4-4-4-4--| 
D|--7---7---7-----7-7-7-7-7--5---5---5-----5-5-5-5-5--| 
A|--7---7---7-----7-7-7-7-7--5---5---5-----5-5-5-5-5--| 
E|--5---5---5-----5-5-5-5-5--3---3---3-----3-3-3-3-3--| 


    C      F 
e|--3---3---3-----3-3-3-3-3--1---1---1-----1-1-1-1-1--| 
B|--5---5---5-----5-5-5-5-5--1---1---1-----1-1-1-1-1--| 
G|--5---5---5-----5-5-5-5-5--2---2---2-----2-2-2-2-2--| 
D|--3---3---3-----3-3-3-3-3--3---2---2-----2-2-2-2-2--| 
A|--3---3---3-----3-3-3-3-3--3---3---3-----3-3-3-3-3--| 
E|---------------------------1---1---1-----1-1-1-1-1--| 
    He floats in and out of riddles... 

    Am      G 
e|--5---5---5-----5-5-5-5-5--3---3---3-----3-3-3-3-3--| 
B|--5---5---5-----5-5-5-5-5--3---3---3-----3-3-3-3-3--| 
G|--5---5---5-----5-5-5-5-5--5---5---4-----4-4-4-4-4--| 
D|--7---7---7-----7-7-7-7-7--5---5---5-----5-5-5-5-5--| 
A|--7---7---7-----7-7-7-7-7--5---5---5-----5-5-5-5-5--| 
E|--5---5---5-----5-5-5-5-5--3---3---3-----3-3-3-3-3--| 


    F 
e|--1---1---1-----1-1-1-1-1--| 
B|--1---1---1-----1-1-1-1-1--| 
G|--2---2---2-----2-2-2-2-2--| 
D|--3---2---2-----2-2-2-2-2--| 
A|--3---3---3-----3-3-3-3-3--| 
E|--1---1---1-----1-1-1-1-1--| 


CHORUS 

    C      F 
e|--3---3---3-----3-3-3-3-3--1---1---1-----1-1-1-1-1--| 
B|--5---5---5-----5-5-5-5-5--1---1---1-----1-1-1-1-1--| 
G|--5---5---5-----5-5-5-5-5--2---2---2-----2-2-2-2-2--| 
D|--3---3---3-----3-3-3-3-3--3---2---2-----2-2-2-2-2--| 
A|--3---3---3-----3-3-3-3-3--3---3---3-----3-3-3-3-3--| 
E|---------------------------1---1---1-----1-1-1-1-1--| 
    Ten years older... 

    C      F 
e|--3---3---3-----3-3-3-3-3--1---1---1-----1-1-1-1-1--| 
B|--5---5---5-----5-5-5-5-5--1---1---1-----1-1-1-1-1--| 
G|--5---5---5-----5-5-5-5-5--2---2---2-----2-2-2-2-2--| 
D|--3---3---3-----3-3-3-3-3--3---2---2-----2-2-2-2-2--| 
A|--3---3---3-----3-3-3-3-3--3---3---3-----3-3-3-3-3--| 
E|---------------------------1---1---1-----1-1-1-1-1--| 


    C      Am 
e|--3---3---3-----3-3-3-3-3--5---5---5-----5-5-5-5-5--| 
B|--5---5---5-----5-5-5-5-5--5---5---5-----5-5-5-5-5--| 
G|--5---5---5-----5-5-5-5-5--5---5---5-----5-5-5-5-5--| 
D|--3---3---3-----3-3-3-3-3--7---7---7-----7-7-7-7-7--| 
A|--3---3---3-----3-3-3-3-3--7---7---7-----7-7-7-7-7--| 
E|---------------------------5---5---5-----5-5-5-5-5--| 


    F 
e|--1------------------------| 
B|--1------------------------| 
G|--2------------------------| 
D|--3------------------------| 
A|--3------------------------| 
E|--1------------------------| 


VERSE 2 - Same as VERSE 1 


CHORUS 


BRIDGE 

    Am 
e|--5---5-5-5-5-----5-5-5---5-5---5---5-5-5-5-----5-5-5---5-5--| 
B|--5---5-5-5-5-----5-5-5---5-5---5---5-5-5-5-----5-5-5---5-5--| 
G|--5---5-5-5-5-----5-5-5---5-5---5---5-5-5-5-----5-5-5---5-5--| 
D|--7---7-7-7-7-----7-7-7---7-7---7---7-7-7-7-----7-7-7---7-7--| 
A|--7---7-7-7-7-----7-7-7---7-7---5---7-7-7-7-----7-7-7---7-7--| 
E|--5---7-7-7-7-----7-7-7---7-7---5---5-5-5-5-----5-5-5---5-5--| 
    You're no son of mine... 

    F 
e|--1---1-1-1-1-----1-1-1---1-1---1---1-1-1-1-----1-1-1---1-1--| 
B|--1---1-1-1-1-----1-1-1---1-1---1---1-1-1-1-----1-1-1---1-1--| 
G|--2---2-2-2-2-----2-2-2---2-2---2---2-2-2-2-----2-2-2---2-2--| 
D|--3---3-3-3-3-----3-3-3---3-3---3---3-3-3-3-----3-3-3---3-3--| 
A|--3---3-3-3-3-----3-3-3---3-3---3---3-3-3-3-----3-3-3---3-3--| 
E|--1---1-1-1-1-----1-1-1---1-1---1---1-1-1-1-----1-1-1---1-1--| 
    Should I be sleepin'... 

    Am 
e|--5---5-5-5-5-----5-5-5---5-5---5---5-5-5-5-----5-5-5---5-5--| 
B|--5---5-5-5-5-----5-5-5---5-5---5---5-5-5-5-----5-5-5---5-5--| 
G|--5---5-5-5-5-----5-5-5---5-5---5---5-5-5-5-----5-5-5---5-5--| 
D|--7---7-7-7-7-----7-7-7---7-7---7---7-7-7-7-----7-7-7---7-7--| 
A|--7---7-7-7-7-----7-7-7---7-7---5---7-7-7-7-----7-7-7---7-7--| 
E|--5---7-7-7-7-----7-7-7---7-7---5---5-5-5-5-----5-5-5---5-5--| 


    F 
e|--1---1-1-1-1-----1-1-1---1-1---1---1-1-1-1-----1-1-1---1-1--| 
B|--1---1-1-1-1-----1-1-1---1-1---1---1-1-1-1-----1-1-1---1-1--| 
G|--2---2-2-2-2-----2-2-2---2-2---2---2-2-2-2-----2-2-2---2-2--| 
D|--3---3-3-3-3-----3-3-3---3-3---3---3-3-3-3-----3-3-3---3-3--| 
A|--3---3-3-3-3-----3-3-3---3-3---3---3-3-3-3-----3-3-3---3-3--| 
E|--1---1-1-1-1-----1-1-1---1-1---1---1-1-1-1-----1-1-1---1-1--| 


    Am 
e|--5---5-5-5-5-----5-5-5---5-5---5---5-5-5-5-----5-5-5---5-5--| 
B|--5---5-5-5-5-----5-5-5---5-5---5---5-5-5-5-----5-5-5---5-5--| 
G|--5---5-5-5-5-----5-5-5---5-5---5---5-5-5-5-----5-5-5---5-5--| 
D|--7---7-7-7-7-----7-7-7---7-7---7---7-7-7-7-----7-7-7---7-7--| 
A|--7---7-7-7-7-----7-7-7---7-7---5---7-7-7-7-----7-7-7---7-7--| 
E|--5---7-7-7-7-----7-7-7---7-7---5---5-5-5-5-----5-5-5---5-5--| 
    That I don't need your help... 

    F 
e|--1---1-1-1-1-----1-1-1---1-1---1---1-1-1-1-----1-1-1---1-1--| 
B|--1---1-1-1-1-----1-1-1---1-1---1---1-1-1-1-----1-1-1---1-1--| 
G|--2---2-2-2-2-----2-2-2---2-2---2---2-2-2-2-----2-2-2---2-2--| 
D|--3---3-3-3-3-----3-3-3---3-3---3---3-3-3-3-----3-3-3---3-3--| 
A|--3---3-3-3-3-----3-3-3---3-3---3---3-3-3-3-----3-3-3---3-3--| 
E|--1---1-1-1-1-----1-1-1---1-1---1---1-1-1-1-----1-1-1---1-1--| 


    Am 
e|--5---5-5-5-5-----5-5-5---5-5---5---5-5-5-5-----5-5-5---5-5--| 
B|--5---5-5-5-5-----5-5-5---5-5---5---5-5-5-5-----5-5-5---5-5--| 
G|--5---5-5-5-5-----5-5-5---5-5---5---5-5-5-5-----5-5-5---5-5--| 
D|--7---7-7-7-7-----7-7-7---7-7---7---7-7-7-7-----7-7-7---7-7--| 
A|--7---7-7-7-7-----7-7-7---7-7---5---7-7-7-7-----7-7-7---7-7--| 
E|--5---7-7-7-7-----7-7-7---7-7---5---5-5-5-5-----5-5-5---5-5--| 
     

    F   G 
e|--1---1-1-1-1-----1-1-1---1-1---3----------------------------| 
B|--1---1-1-1-1-----1-1-1---1-1---3----------------------------| 
G|--2---2-2-2-2-----2-2-2---2-2---4----------------------------| 
D|--3---3-3-3-3-----3-3-3---3-3---5----------------------------| 
A|--3---3-3-3-3-----3-3-3---3-3---5----------------------------| 
E|--1---1-1-1-1-----1-1-1---1-1---3----------------------------| 


VERSE 3 - Same as Verse 1 


CHORUS x 2 


End by strumming F three times 


*Am can also be played like this: 

e|--0--| 
G|--1--| 
B|--2--| 
D|--2--| 
A|--0--| 
E|-----| 
            
Submit corrections

comments powered by Disqus
↑ Back to top | 8 Stops 7 Tabs for Question Everything. Lyrics for acoustic guitar and electric guitar. Tablatures and chords are parodies/interpretations of the original songs. You may use it for private study, scholarship, research or language learning purposes only