» » »

Season For Assault Tabs (ver.2)

Artists:  A B C D E F G H I J K L M N O P Q R S T U V W X Y Z # 

Season For Assault Tabs (ver.2)

8 Foot Sativa
Rating:
5/5 (1 vote)

Hard to play? Try these video lessons and learn fast.
                This is a less demanding version for your fingers with tweaks from previous versions.

Tuning B F# B E G# C# (Low-High)

Guitar: Gary Smith

Intro: 122 BPM

Main Riffs: 180 BPM

Section A

Part 1
----------------------------------------|
-------------6--------5-----------------|
----------------------------------------|
-------7--------7--------7------5h7-----|x2
----5-----5--------5--------5-----------|
--0-------------------------------------|


Part 1a                       Part 1b
--------------------------|   ----------------------------|
--------------------------|   ----------------------------|   
--------7--------7-----7--|   ----------9---------9----9--|   
-----8--------8-----------|   ------10--------10----------|
--------------------------|   ----------------------------|
--8--------8--------8-----|   --10--------10-------10-----|

Part 1c
--------------------------|
--------------------------|
--------0-------0---------|
-----6-------1------1-----|
--------------------------|
--6--------1------1-------|

NB:Let ring for all

Play through parts 1, 1a then 1b. Second time through play 1a and 1c.
Play these steps Twice through.


Section B

Part 2a
----------------------------------------------------|
----------------------------------------------------|
--0-h-3-p-0-----------------5-----------------------|
--0-h-3-p-0--0--0--6--0--0----------8---7h8p7----10-|
--0-h-3-p-0--0--0--6--0--0----8--8----8-------10----|

Part 2b
----------------------------------------------------|
----------------------------------------------------|
--0-h-3-p-0-----------------5-----------------------|
--0-h-3-p-0--0--0--6--0--0----------8---7h8p7-------|
--0-h-3-p-0--0--0--6--0--0----8--8----8-------10----|

Part 2c
----------------------------------------------------|
----------------------------------------------------|
--0-h-3-p-0-----------------5-----------------------|
--0-h-3-p-0--0--0--6--0--0----------8---------------|
--0-h-3-p-0--0--0--6--0--0----8--8----8---10--------|

Play Through 2a and 2b Three times and on the fourth swap 2b for 2c.


Section C

Part 3a
----------------------------------------------------|
----------------------------------------------------|
----------------------------------------------------|
---------------------------------------7------------|
---------4-5----4-7-----5-8--7--10---8--------------|
--0-0-0------0-------0------------------------------|

Part 3b
----------------------------------------------------|
----------------------------------------------------|
----------------------------------------------------|
----------------------------------------------------|
---------4-5----4-7-----5-8--7--10-----7------------|
--0-0-0------0-------0---------------8--------------|

Part 3c
----------------------------------------------------|
----------------------------------------------------|
----------------------------------------------------|
----------------------------------------------------|
---------4-5-----4-7-----7-10-8-7-7-10-8-7----------|
--0-0-0-------0-------0-----------------------------|

Play in this order: 3a, 3b, 3a, 3c. Play through twice.


Section D

Part 4a                             Part 4b
---------------------------------|  ----------------------------------|
---------------------------------|  ----------------------------------|
---------------------------------|  ----------------------------------|
---------------------------------|  --------------------------6-5-3PH-|
--5/--------------------------8--|  --5/------------------------------|
------0-0-0-0-0--5-6-0-3-6-7-----|  ------0-0-0-0-0--5-6-0-3----------|

Part 4c
---------------------------------|
---------------------------------|
---------------------------------|
---------------------------------|
--8------5-----7---------8-10----|
----8--8-----8----10--10---------|

Play through 4a, 4b, 4a, 4c. Then repeat.


Section E

Part 5a                             Part 5b
-----------------------------------|  -----------------------------------|
-----------------------------------|  -----------------------------------|
-----------------------------------|  -----------------------------------|
-----------------------------------|  -------------------------4h5p4---4-|
----------5--3---6-5-3-3h5p3-------|  ----------5--3---6-5-3---------6---|
--0--0--0---------------------6--5-|  --0--0--0--------------------------|

Repeat 5a and 5b together 6 times.


Playing order.

Section A
Section B
Section C
Section D
Section B
Section C
Section D
Section E
Section C
Section D
                      -0-|
Finish with a Simple  -0-|
                      -0-|

I tried to keep it as simple as possible.

This is mainly based off the Guitar pro tab with minor tweaks for easier playing.
Would give credit but all tabs were uploaded by unregistered users.

Enjoy.
            
Hard to play? Try these video lessons and learn fast. | Correct




comments powered by Disqus
↑ Back to top | Tablatures and chords are parodies/interpretations of the original songs. You may use it for private study, scholarship, research or language learning purposes only