» » »

8 Foot Sativa, Perpetual Torment Tabs (ver.2)

Artists:  A B C D E F G H I J K L M N O P Q R S T U V W X Y Z # 

Perpetual Torment Tabs (ver.2)

8 Foot Sativa Tabs
 Rating:
4/5 (5 votes)
Perpetual Torment lessons Tabs too difficult? Try these video lessons and learn fast
1
                8 Foot Sativa - Perpetual Torment
Track 1 on their third album Breed the Pain (2004)

Tuning: Drop B [B F# B E G# C# low to high]
Time: 4
      4
Just trying my best here guys. :)


Riff 1 
|--------------------------------|--------------------------------|
|--------------------------------|-----------------------11--10---|
|------------7-6-----s9~---------|------------7-6---s10-----------|
|0-------------------------------|0-------------------------------|
|0----0h5h8----------------------|0----0h5h8----------------------|
|0-------------------------------|0-------------------------------|

|--------------------------------|--------------------------------|
|--------------------------------|--------------------------------|
|------------7-6-----ph9~--------|------------7-6-7--6h7p6--------|
|0-------------------------------|0------------------------8-----0|
|0----0h5h8----------------------|0----0h5h8---------------------0|
|0-------------------------------|0------------------------------0|

Riff 2
 1   2   3   4   |1   2   3   4   |1   2   3   4   |1   2   3   4   |
|----------------|----------------|----------------|----------------|
|----------------|----------------|----------------|----------------|
|----------------|----------------|----------------|----------------|
|-------h5p0h7-8-|----9--12--10-5-|--------5-----7-|--------------0-|
|--0h5p0-------8-|--------------5-|----8-----5-8-7-|----8--10---7-0-|
|--------------8-|--8---8---8---5-|--5---5-------7-|--7---7---7---0-| \

|----------------|----------------|----------------|----------------|  x2
|----------------|----------------|----------------|----------------|
|----------------|----------------|----------------|----------------| /
|-------h5p0h7-8-|----9--12--10-5-|--------5-----7-|--------------0-|
|--0h5p0-------8-|--------------5-|----8-----5-8-7-|---10---7-----0-| first
|--------------8-|--8---8---8---5-|--5---5-------7-|--7---7-------0-| time
                                                                   \_ only
Riff 3
 _

Riff 4
 _

Riff 5
 _

Riff 6
 1   2   3   4   |1   2   3   4   |1   2   3   4   |1   2   3   4   |
|----------------|----------------|----------------|----------------|
|----------------|----------------|----------------|----------------|
|----------------|----------5-----|----------------|------------7---|
|----------5-----|--8-7-5-----8-7-|----------5---5-|--7-------7---7-|
|5-7-8-5-8-----5-|--------5-------|5-7-8-5-8-------|----8-5-7-------|
|----------------|----------------|----------------|----------------| \

|----------------|----------------|----------------|-------pinch----|  x2
|----------------|----------------|----------------|-------harm-----|
|----------------|----------5-----|----------------|--------5---~---| /
|----------5-----|--8-7-5-----8-7-|----------5-----|--8-7-5---------|
|--7-8-5-8-----5-|--------5-------|5-7-8-5-8-----5-|----------------|
|8---------------|----------------|----------------|----------------|

Riff 7
 1   2   3   4   |1   2   3   4   |1   2   3   4   |1   2   3   4   |
|----------------|----------------|----------------|----------------|
|----------------|----------------|----------------|----------------|
|----------------|----------------|----------------|----------------|
|----------------|----------5-----|----------------|----------7-----| x2
|--------5---~---|----5-------8-7-|--------4---~---|----4-------7-8-|
|00000000--------|0000--000-------|00000000--------|0000--000-------|
            
Submit corrections

comments powered by Disqus
↑ Back to top | 8 Foot Sativa Tabs for Perpetual Torment. Lyrics for acoustic guitar and electric guitar. 1 Tablatures and chords are parodies/interpretations of the original songs. You may use it for private study, scholarship, research or language learning purposes only