» » »

Kick It All Away Tabs (ver.1)

Artists:  A B C D E F G H I J K L M N O P Q R S T U V W X Y Z # 

Kick It All Away Tabs (ver.1)

8 Foot Sativa
Rating:
0/5 (0 votes)

Hard to play? Try these video lessons and learn fast.
                
|-7p0-0-7p0-0-7p0---7p0-0-7p0-0-7p0-|
|-----------------------------------|                                       
|-----------------------------------|
|-----------------------------------|
|-----------------------------------|
|-----------------------------------| 

Intro.2: w/dist
|-7p0-0-7p0-0-7p0---8p0-0-8p0-0-8p0-|
|-----------------------------------|        
|-----------------------------------|
|-----------------------------------|
|-----------------------------------|
|-----------------------------------| 

Pre chorus: w/heavy dist
|-----------------------|
|-----------------------|
|-----------------------|
|-----------------------|
|-2-----8\7-----7-5---8-|
|-0-0-0-6\5-0-0-5-3-0-6-| 

verse: w/dist
|--------------------------|
|--------------------------|
|--------------------------|
|--------------------------|
|-8p7-77---7p5---8p7---8p5-|
|--------0-----0-----0-----| 
chorus: w/dist
|----------------------------|---------------------------------------|
|----------------------------|---------------------------------------|
|----------------------------|---------------------------------------|
|---------------11---11---11-|---------------11-11-11-11-11-11-11-11-|
|-10---10---10---------------|-10---10---10--10-10-10-10-10-10-10-10-|
|----0----0--------0----0----|----0----0-----------------------------| 

chorus pt.2: w/dist
|-----------------------------------------------|
|-----------------------------------------------|
|-----------------------------------------------|(Not Completly certain 
|-9-9-------10--9-------12-12-------10-----9/10-| accuracy of this bit.)
|-7-7-------8---7-------10-10-------8------7/8--|
|-----0-0-0---0-----0-0-------0-0-0----0-0------|
 
bridge:
|-6/7-77-6/7-7-7-88-|       
|-55555555-777777-|   
|-6/7-77-6/7-7-7-88-| x3    
|-55555555-777777-|
|-------------------| then  
|-----------------|
            
Hard to play? Try these video lessons and learn fast. | Correct




comments powered by Disqus
↑ Back to top | Tablatures and chords are parodies/interpretations of the original songs. You may use it for private study, scholarship, research or language learning purposes only