» » »

I Live My Death Bass tabs (ver.1)

Artists:  A B C D E F G H I J K L M N O P Q R S T U V W X Y Z # 

I Live My Death Bass tabs (ver.1)

8 Foot Sativa
Rating:
5/5 (3 votes)

Hard to play? Try these video lessons and learn fast.
                Just a bass intro as requested.

Drop B tuning B,F#,B,E (Low-High)

Let all notes on the high string ring.

4/4 timing, 194 BPM

-10-----10-----9-----13-----10-----10-----9-----15---14-10-----10-----10-----9-|
----0-0----0-0---0-0----0-0----0-0----0-0---0-0----0-------0-0----0-0----0-0---|
-------------------------------------------------------------------------------|
-------------------------------------------------------------------------------|

-14-----19-----21-----22-----19-----19-----19-------19-------19-------19-------|
----0-0----0-0----0-0----0-0----0-0----0-0----20-20----20-20----20-20----20-20-|
-------------------------------------------------------------------------------|
-------------------------------------------------------------------------------|

-14-22-----22-----22-----22-----19-----19-------19-------19-------19--------21-|
------20-20--20-20--20-20--20-20----0-0----20-20----20-20----20-20----20-20----|
-------------------------------------------------------------------------------|
-------------------------------------------------------------------------------|

------21-----21-----21-----18-----18-----18-----18-----19-----19-----19-----19-| 
-19-19--19-19--19-19--19-19--19-19--19-19--19-19--19-19--20-20--20-20--20-20---|
-------------------------------------------------------------------------------|
-------------------------------------------------------------------------------|

------22-----22-----22-----22-----21-----21-----21-----21--------21-----18-----|
-20-20--20-20--20-20--20-20--20-20--19-19--19-19--19-19--19-19-19--19-19--19-19|
-------------------------------------------------------------------------------|
-------------------------------------------------------------------------------|

-18------21-19-18-19-18----10-----9-----7-----6-----3-----2-----5-----7-----10-|
---19-19----------------19----0-0---0-0---0-0---0-0---0-0---0-0---0-0---0-0----|
-------------------------------------------------------------------------------|
-------------------------------------------------------------------------------|

-----9-----7-----6-----3-----2-----5-----7---9-10-----9-----7-----6-----3-----2|
-0-0---0-0---0-0---0-0---0-0---0-0---0-0---0------0-0---0-0---0-0---0-0---0-0--|
-------------------------------------------------------------------------------|
-------------------------------------------------------------------------------|

-----5-----7-----10-----9-----7-----6-----3-----2-----5-----7---9--------------|
-0-0---0-0---0-0----0-0---0-0---0-0---0-0---0-0---0-0---0-0---0----------------|
-------------------------------------------------------------------------------|
-------------------------------------------------------------------------------|

After this the drums and guitar come in.

Sorry if its hard to read but as far as I'm aware its accurate.

Enjoy.
            
Hard to play? Try these video lessons and learn fast. | Correct




comments powered by Disqus
↑ Back to top | Tablatures and chords are parodies/interpretations of the original songs. You may use it for private study, scholarship, research or language learning purposes only