>
 >
Hate Made Me..

Hate Made Me.. Guitar Tabs

8 Foot Sativa - Hate Made Me.. chords, tabs, tablatures, lyrics

Guitar lessons | Add/correct | Request | Top 50 tabs Artists:  A B C D E F G H I J K L M N O P Q R S T U V W X Y Z 0-9

Hate Made Me.. Guitar Tabs – 8 Foot Sativa

CD, Sheet music, Poster

Do you like Hate Made Me..? Share with your friends now
Tabs
Artist		:	8 Foot Sativa
Song		:	Hate Made Me


Tuning		:	B,F#,B,E,G#,C# (Low to High)


Intro(Riff 1)
|----------------------------------------------------------------|
|----------------------------------------------------------------|
|-----------------------10-10-10-10--9-9-9-9--12-12-12-12--------|X2
|-12-12-12-12--8-8-8-8--10-10-10-10--9-9-9-9--12-12-12-12--------|
|-12-12-12-12--8-8-8-8--8--8--8--8---7-7-7-7--10-10-10-10--------|
|-12-12-12-12--8-8-8-8-------------------------------------------|


0:11(Riff 2)
|------------------------------------------|
|------------------------------------------|
|------------------------------------------|X2
|--00--00--00-----8-8-8-8---10-10-10-10----|
|--00--00--00-----8-8-8-8---10-10-10-10----|
|--00--00--00-----8-8-8-8---10-10-10-10----|


0:21(Riff 3)
|-------------------------------------------------------------------|
|-------------------------------------------------------------------|
|-------------------------------------------------------------------|
|--0--7p6p5--0----3p2p1--00---7p6p5---0h3-3-0-----------------------|X4
|--0--7p6p5--0----3p2p1--00---7p6p5---0h3-3-0-----------------------|
|--0--7p6p5--0----3p2p1--00---7p6p5---0h3-3-0-----------------------|


0:38(Verse)
|---------------------------------------------------------|
|---------------------------------------------------------|
|---------------------------------------------------------|X4
|----------6---------8---------6--------------------------|
|--5-5-5-5---5-5-5-5---5-5-5-5---5-5-3-3-5-5--------------|
|---------------------------------------------------------|
   PM......................................


0:54(This one is played fast with slight palming on the bridge, to cut back on the noise)
(Prechorus)
|-----------------------------------------------------------------|
|-----------------------------------------------------------------|
|-----------------------------------------------------------------|
|-----------------------------------------------------------------|
|-----------------------------------------------------------------|
|--0-0-0-0--3-3-3-3--7-7-7-7--12-12-12-12----11-11-11-11--9-9-9-9-|
								X2
|------------------------------------------------------------------------|
|------------------------------------------------------------------------|
|------------------------------------------------------------------------|
|------------------------------------------------------------------------|
|------------------------------------------------------------------------|
|--0-0-0-0--3-3-3-3--7-7-7-7--12-12-12-12----14-14-14-14--12-12-12-12----|


1:15(Chorus)
|------------------------|
|------------------------|
|---------------7-7------|X2
|--0-0---7p5h7--7-7------|
|--0-0---7p5h7--5-5------|
|--0-0---7p5h7-----------|
	PM....
				X4
1:18
|-------------------------------------------|
|-------------------------------------------|
|--3--3-3--3--3-3--3---5--5-5--5--5-5--5----|
|--3--3-3--3--3-3--3-- 5--5-5--5--5-5--5----|
|--1--1-1--1--1-1--1---3--3-3--3--3-3--3----|
|-------------------------------------------|
     PM..    PM..	 PM..	 PM..


Riff 2		(1:35)
Verse		(1:44)
Prechorus	             (2:00)
Chorus		(2:21)
Riff 1		(2:41)
Riff 2		(2:52)





Comments


Popular 8 Foot Sativa tabs & chords
Destined To Be Dead Bass Tabs
8 Foot Sativa 1 Tabs
8 Foot Sativa 2 Tabs
Altar Of Obscenity Tabs
Believer Tabs
Chelsea Smile 2 Tabs
Cocktease.. Tabs
For Religions To Suffer Intro Tabs
Gutless Tabs
Season For Assault 1 Tabs


Song lyrics



↑ Back to top | Tablatures and chords are parodies/interpretations of the original songs. You may use it for private study, scholarship, research or language learning purposes only
© 2014 AZChords.com Contact us | Privacy policy | DMCA | Add/correct tabs | Request tabs | Top 50 tabs