» » »

Destined To Be Dead Bass tabs (ver.1)

Artists:  A B C D E F G H I J K L M N O P Q R S T U V W X Y Z # 

Destined To Be Dead Bass tabs (ver.1)

8 Foot Sativa
Rating:
0/5 (0 votes)

Hard to play? Try these video lessons and learn fast.
                
Tuning: Drop D
                    Intro x2
G|---------------------------------------------------------------------------|
D|---------------------------------------------------------------------------|
A|---------------------------------------------------------------------------|
D|0-00-000----8-88-888----10-1010-101010--10-1010-101010---------------------|


                    Riff 1 x4
G|---------------------------------------------------------------------------|
D|---------------------------------------------------------------------------|
A|-1-111-1--1-111111-1-1-11--------------------------------------------------|
D|-----------------------------0-000-0-0-00-0-0000--000----------------------|


                    Riff 2 x2
G|---------------------------------------------------------------------------|
D|---------------------------------------------------------------------------|
A|-1-----0-------------------------------------------------------------------|
D|-------------0-3-0 11-0-1-----0-3-0-11-0-1---------------------------------|


                    Preverse x1
G|---------------------------------------------------------------------------|
D|---------------------------------------------------------------------------|
A|---------------------------------------------------------------------------|
D|-----0-3-0-11-0-1----0-3-0-1-----------------------------------------------|

                    Verse x4
G|---------------------------------------------------------------------------|
D|---------------------------------------------------------------------------|
A|-----------------------------------------------------1------0--------------|
D|--0-3-0-11-0-1----0-3-0-11-0-1----0-3-0-11-0-1-----------------------------|


                    Chorus x4
G|---------------------------------------------------------------------------|
D|---------------------------------------------------------------------------|
A|--------------------------------------------------------------1------0-----|
D|-0-00-000----8-88-888----10-1010-101010--10-1010-101010--------------------|


                  Post Chorus x2                    
G|---------------------------------------------------------------------------|
D|---------------------------------------------------------------------------|
A|-1-------0-----------------------------------------------------------------|
D|----------------0000000000000000-------------------------------------------|

                  End Bit
G|---------------------------------------------------------------------------|
D|---------------------------------------------------------------------------|
A|-1-------0-----------------------------------------------------------------|
D|----------------0----------------------------------------------------------|



There ya go, im pretty sure this is right. 8 Foot Sativa rule, i couldn't find this tab
online so me and my mate tabed it ourselves, if you liked this tab try and tab some other
sativa stuff!
            
Hard to play? Try these video lessons and learn fast. | Correct




comments powered by Disqus
↑ Back to top | Tablatures and chords are parodies/interpretations of the original songs. You may use it for private study, scholarship, research or language learning purposes only