» » »

8 Foot Sativa, Cocktease.. Tabs (ver.1)

Artists:  A B C D E F G H I J K L M N O P Q R S T U V W X Y Z # 

Cocktease.. Tabs (ver.1)

8 Foot Sativa Tabs
Rating:
0/5 (0 votes)
Hard to play? Try these video lessons and learn fast.
                Tuning:drop B(low to high)B-F#-B-E-G#-C#

  Intro
                                         PM--|
||------------------------------------------------||
||o----------------------------------------------o||
||--------------------------------------------7---||
||--------------------------------------------6---||
||o--3-0-0--0-3p0-3-0-0--0-3p0-3-0-0--0-3p0---5--o||
||---3-0-0--0-3p0-3-0-0--0-3p0-3-0-0--0-3p0-6-----||

                                               PM-------------|
||--------------------------------------------------------------||
||o------------------------------------------------------------o||
||--------------------------------------------------------------||
||--------------------------------------------------------------||
||o--0-3p0-3-0-0--0-3p0-3-0-0--0-3p0-3-0-0--0-3p0--------------o||
||---0-3p0-3-0-0--0-3p0-3-0-0--0-3p0-3-0-0--0-3p0-555555555555--||3x


  Verse
                        2x                                                  1x
||---9h10-x10-10-10-1010--|-12h13-x13-13-13-1313-----------------------------------||
||o--9h10-x10-10-10-1010--|-12h13-x13-13-13-1313-12121212121212121111111111111111-o||
||---9h10-x10-10-10-1010--|-12h13-x13-13-13-1313-1010101010101010-9-9-9-9-9-9-9-9--||
||------------------------|-----------------------9-9-9-9-9-9-9-9-8-8-8-8-8-8-8-8--||
||o-----------------------|-------------------------------------------------------o||
||------------------------|--------------------------------------------------------||2x


  Pre-chorus 1

  PM----------|   |--------|                    
||-------------------------------||
||o-----------------------------o||
||-------------------------------||
||-------------0-0-----------6---||
||o--0-6-5---5-0-0-6-5-0-5-0-6--o||
||---0-6-5-0-5-0-0-6-5-0-5-0-6---||4x

  
  Pre-chorus 2

||-------------------------------||
||o-----------------------------o||
||-------------------------------||
||---0-6-5-0-5-0-0-6-5-0-5-0-6---||
||o--0-6-5-0-5-0-0-6-5-0-5-0-6--o||
||---0-6-5-0-5-0-0-6-5-0-5-0-6---||8x



   Chorus
                
||---------------------|-----------------|----------------||
||o--------------------|-----------------|---------------o||
||---------------------|-----------------|----------------||
||---0-0---6--0-0---6--|----8-8---9------|----7-7---9-----||
||o--0-0---5--0-0---5--|----8-8---8------|----7-7---8----o||
||---0-0------0-0------|----8-8----------|----7-7---------||

||---------------------|-----------------|----------------||
||o--------------------|-----------------|---------------o||
||---------------------|-----------------|----------------||
||---0-0---6--0-0---6--|----8-8---9------|----6-6---9-----||
||o--0-0---5--0-0---5--|----8-8---8------|----6-6---8----o||
||---0-0------0-0------|----8-8----------|----6-6---------||2x


  Intro 2x
  Verse 2x
  Pre-chorus 1 4x
  Pre-chorus 2 8x
  Chorus 2x

  Breakdown 1

  PM--------------------|
||------------------------|
||o-----------------------|
||------------------------|
||------------------------|
||o--3-2-0-6-5-0-3-2-0-0--|
||---3-2-0-6-5-0-3-2-0-0--|4x

  Breakdown 2

||------------------------|
||o-----------------------|
||------------------------|
||------------------------|
||o--3-2-0-6-5-0-3-2-0-0--|
||---3-2-0-6-5-0-3-2-0-0--|8x

  
  Chorus 2x

  End fill

||---------|
||o--------|
||---------|
||----0----|
||o---0----|
||----0----|all the riffs are there just piece them 2gether

all comments & sativamail welcome.
shoutout to mcud & munky
            

comments powered by Disqus
↑ Back to top | 8 Foot Sativa Tabs for Cocktease... Lyrics for acoustic guitar and electric guitar. Tablatures and chords are parodies/interpretations of the original songs. You may use it for private study, scholarship, research or language learning purposes only