» » »

8 Foot Sativa, 8 Foot Sativa Bass tabs (ver.1)

Artists:  A B C D E F G H I J K L M N O P Q R S T U V W X Y Z # 

8 Foot Sativa Bass tabs (ver.1)

8 Foot Sativa Tabs
 Rating:
4.3/5 (6 votes)
8 Foot Sativa lessons Tabs too difficult? Try these video lessons and learn fast
                ---
8 Foot Sativa 

Intro:
G|-----------|
D|-----------|
A|-2~--------|
E|-----3~----| 

Pre-Verse:
G|--------------|
D|--------------|
A|-3--5-2-222---|
E|--------------| 

G|----------------|
D|----------------|
A|-3h2-5-2-222----| x7
E|----------------|

Verse:
G|----------------------------------|
D|----------------------------------|
A|-22222222-------------------------|
E|---------33333333-00000000-22-2---| repeat

Pre-Chorus:
G|-------------------|
D|-------------------|
A|-------------------|
E|-33333333-66666666-| repeat

Chorus
G|--------------------|
D|--------------------|
A|--------------------|
E|-32-32-32-2-2-3-2---| repeat

Pre-Verse
Verse
Pre-Chorus
Chorus

Bridge - Guitar first then bass.
G|----------------------------|              |-----|
D|----------------------------|              |-----|
A|-222-000-5h3-222-222-22-----|              |-----|     
E|----------------------------| repeat, then |-2~--| 

Pre-Verse
Verse
Pre-Chorus
Chorus

That’s it, my favourite song from an awesome NZ metal band XD
            
Submit corrections

comments powered by Disqus
↑ Back to top | 8 Foot Sativa Bass for 8 Foot Sativa. Lyrics for acoustic guitar and electric guitar. Tablatures and chords are parodies/interpretations of the original songs. You may use it for private study, scholarship, research or language learning purposes only