» » »

Worst Man Won Bass tabs (ver.1)

Artists:  A B C D E F G H I J K L M N O P Q R S T U V W X Y Z # 

Worst Man Won Bass tabs (ver.1)

88 Fingers Louie
Rating:
0/5 (0 votes)

Hard to play? Try these video lessons and learn fast.
                
 

Intro / Verse: 
E|-33-----33-----33-------------- 
A|---33-55--33-55--33-55--11--00- 
D|------------------------------- 
G|------------------------------- 

Second_Palm : 
E|-3333---66--55---3333---66--55- 
A|------------------------------- 
D|------------------------------- 
G|------------------------------- 

Other 
E|-33333------------------------- 
A|------66666---88888------------ 
D|---------------------66-55555-- 
G|------------------------------- 

E|-33333------------------------- 
A|------66666---5555--6666--8888- 
D|------------------------------- 
G|------------------------------- 

Intro / Verse 
            
Hard to play? Try these video lessons and learn fast. | Correct




comments powered by Disqus
↑ Back to top | Tablatures and chords are parodies/interpretations of the original songs. You may use it for private study, scholarship, research or language learning purposes only