» » »

88 Fingers Louie, Too Many Bass tabs (ver.1)

Artists:  A B C D E F G H I J K L M N O P Q R S T U V W X Y Z # 

Too Many Bass tabs (ver.1)

88 Fingers Louie Tabs
 Rating:
4/5 (4 votes)
Too Many lessons Tabs too difficult? Try these video lessons and learn fast
1
                VERSE

G-----------------------------------------------------|
D-----------------------------------------------------|
A-5---8--3--5---8--10--5---8-3-7-8-10--5---8-10-------|
E---6---------6----------6---------------6------------|

CHORUS

G-----------------------------------------------------|
D----8-7-10-8-7----------------8-7-10-8-7-------------|
A-5--------------5-8-7-10-8--5-------------5-8-7-10---|
E-----------------------------------------------------|

BASS BREAK

G-----------------------------------------------------|
D-----------------------------------------------------|
A-5-3-5-8-10-8-7-8-5-3-5---8-7-5---17-15-17-20-22-20--|
E------------------------6-----------------------------|

G-----------------------------------------------------|
D-----------------------------------------------------|
A-19-20-17-15-17----20-19-17--5---8-3-----------------|
E----------------18-------------6---------------------|

REPEAT VERSE AND CHORUS AND THE REST IS PRETTY MUCH THE SAME NOTES
            
Submit corrections

comments powered by Disqus
↑ Back to top | 88 Fingers Louie Bass for Too Many. Lyrics for acoustic guitar and electric guitar. 1 Tablatures and chords are parodies/interpretations of the original songs. You may use it for private study, scholarship, research or language learning purposes only