» » »

Summer Photos Tabs (ver.1)

Artists:  A B C D E F G H I J K L M N O P Q R S T U V W X Y Z # 

Summer Photos Tabs (ver.1)

88 Fingers Louie
Rating:
0/5 (0 votes)

Hard to play? Try these video lessons and learn fast.
                verse
g---------------------------------------------------------|
d---------------------------------------------------------|
a-------2-2222--------2-2222--2-1-----------1-------------| x2
e-0-2-4---------0-2-4-------------4-2-2222----4-2-0-0000--|

chorus
g-------------------------------------------------|
d-----------2222-------4444--2222--4-4-22-1-2-1---|
a-2222------------2222--------------------------4-|
e------2222---------------------------------------|

g----------------------------------|
d-----------2222-------4444--2222--|
a-2222-----------2222--------------|
e------2222------------------------|

verse x2
chorus

bridge
end the second chorus with

e-22222222222222

than

g-----------------------------------|
d-----------------------------------|
a---------77777777-22222222---------| x2
e-4444444-------------------2222222-|

g-------------------|
d-------------------|
a-7777777--99999999-|
e-------------------|

verse x2
chorus till the end

listen to the song for good timing and drink as much beer as you can during playing, 
help your fingers

makesomenoise!pl
            
Hard to play? Try these video lessons and learn fast. | Correct




comments powered by Disqus
↑ Back to top | Tablatures and chords are parodies/interpretations of the original songs. You may use it for private study, scholarship, research or language learning purposes only