» » »

88 Fingers Louie, Selfish Means Bass tabs (ver.1)

Artists:  A B C D E F G H I J K L M N O P Q R S T U V W X Y Z # 

Selfish Means Bass tabs (ver.1)

88 Fingers Louie Tabs
Rating:
0/5 (0 votes)
Selfish Means lessons Tabs too difficult? Try these video lessons and learn fast
                Intro
G--------------------------------------------------------|
D--------------------------------------------------------|
A--------6666------9999----------------------------------|
E---4444------7777---------------------------------------|x4

Fill
G--------------------------------------------------------|
D--------------------------------------------------------|
A--------------------------------------------------------|
E---4--4--444444444--------------------------------------|x1

Verse
G--------------------------------------------------------|
D--------------------------------------------------------|
A--------------------------------------------------------|
E---44444444-7777-22-00----------------------------------|x2

Chorus
G--------------------------------------------------------|
D--------------------------------------------------------|
A--------------------------------------------------------|
E--0000-2222-444444h2-00000000-22222222------------------|x2

Fill
G--------------------------------------------------------|
D--------------------------------------------------------|
A--------------------------------------------------------|
E---4--4--444444444--------------------------------------|x1

Verse
G--------------------------------------------------------|
D--------------------------------------------------------|
A--------------------------------------------------------|
E---44444444-7777-22-00----------------------------------|x1

Verse 2
G--------------------------------------------------------|
D---666h5666h56666-99-8-4--------------------------------|
A--------------------------------------------------------|
E--------------------------7777-22-00--------------------|x1

Chorus
G--------------------------------------------------------|
D--------------------------------------------------------|
A--------------------------------------------------------|
E--0000-2222-444444h2-00000000-22222222------------------|x2

Bridge
G--------------------------------------------------------|
D--------------------------------------------------------|
A--------------------------------------------------------|
E--44-2-0000--77-9-(11)(11)(11)(11)-44-2-0000-77-9-2222--|x1

G--------------------------------------------------------|
D--------------------------------------------------------|
A--------------------------------------------------------|
E--44-2-0000--77-9-(11)(11)(11)(11)-44-2-0000-77-9-2200--|x1

Chorus 2
G--------------------------------------------------------|
D--------------------------------------------------------|
A--7777-9999-6666-(11)(11)(11)(11)-14-13-11--------------|
E--------------------------------------------------------|x1

G--------------------------------------------------------|
D--------------------------------------------------------|
A--7777-9999-6666-4444-6666-7777-9999--------------------|
E--------------------------------------7-6-4-------------|x1

Outro
G--------------------------------------------------------|
D--------------------------------------------------------|
A--------6666------9999----------------------------------|
E---4444------7777---------------------------------------|x6

G------|
D------|
A------|
E--7-4-|

Just play the music in the order you see it ! enjoy !
I'm pretty sure this is 100% correct, but send me any improvements 
if u think it needs it, but only if u know what u are talking about 
please.
            

comments powered by Disqus
↑ Back to top | 88 Fingers Louie Bass for Selfish Means. Lyrics for acoustic guitar and electric guitar. Tablatures and chords are parodies/interpretations of the original songs. You may use it for private study, scholarship, research or language learning purposes only