» » »

88 Fingers Louie, Help Tabs (ver.1)

Artists:  A B C D E F G H I J K L M N O P Q R S T U V W X Y Z # 

Help Tabs (ver.1)

88 Fingers Louie Tabs
 Rating:
4/5 (4 votes)
Help lessons Tabs too difficult? Try these video lessons and learn fast
1
                This is a great Beatles punk cover, I downloaded a couple of days ago, and today I decided to play it, but I couldn't find any tab for it. Not even the band was in the tab archive, so I tabbed this cool song. ENJOY!

Intro
-4---4----------------------------------------------------------------
-4---4-7-5---5-4-2-----2-4-5------------------------------------------
-2---2-7-5---5-4-2-----2-4-5------------------------------------------
-------5-3---3-2-0-----0-2-3--------------pick scr*pe-----------------

Verse
----------6-6-6-6--------------7-7-7-7--------------------------------
-7-7-7-7--6-6-6-6-----4-4-4-4--7-7-7-7---7-7-7-7----------------------  X2
-7-7-7-7--4-4-4-4-----4-4-4-4--5-5-5-5---7-7-7-7----------------------
-5-5-5-5--------------2-2-2-2------------5-5-5-5----------------------

Chorus
-4-4-4-4--4-----------------------------------------------------------
-4-4-4-4--4--7---5-5-5-5--5-4---2-2-2-2-----7-7-7-7-------------------
-2-2-2-2--2--7---5-5-5-5--5-4---2-2-2-2-----7-7-7-7-------------------
-------------5---3-3-3-3--3-2---0-0-0-0-----5-5-5-5-------------------

ORDER
Intro
Verse x2
Chorus
Verse x2
Chorus
Verse x2 (palm mute the first x)
Chorus
            
Submit corrections

comments powered by Disqus
↑ Back to top | 88 Fingers Louie Tabs for Help. Lyrics for acoustic guitar and electric guitar. 1 Tablatures and chords are parodies/interpretations of the original songs. You may use it for private study, scholarship, research or language learning purposes only