» » »

88 Fingers Louie, Apart At The Seams Tabs (ver.2)

Artists:  A B C D E F G H I J K L M N O P Q R S T U V W X Y Z # 

Apart At The Seams Tabs (ver.2)

88 Fingers Louie Tabs
 Rating:
4/5 (4 votes)
Apart At The Seams lessons Tabs too difficult? Try these video lessons and learn fast
                -------------------------------------------------------------------------------
                        APART AT THE SEAMS - 88 Fingers Louie
-------------------------------------------------------------------------------

Tuning: e B G D A E

Intro: 1x
e|---------------------------------------------------------------------------|
B|---------------------------------------------------------------------------|
G|---------------------------------------------------------------------------|
D|--7/9~---7/9~---7/9~-------------------------------------------------------|
A|--7/9~---7/9~---7/9~-------------------------------------------------------|
E|--5/7~---5/7~---5/7~-------------------------------------------------------|

Verse: 6x
e|---------------------------------------------------------------------------|
B|---------------------------------------------------------------------------|
G|---------------------------------------------------------------------------|
D|--99999999--12121212--11111111--44444444--55555555-------------------------|
A|--99999999--12121212--11111111--44444444--55555555-------------------------|
E|--77777777--10101010---9-9-9-9--22222222--33333333-------------------------|

Chorus: 2x
e|---------------------------------------------------------------------------|
B|---------------------------------------------------------------------------|
G|---------------------------------------------------------------------------|
D|--99999999--12121212--11111111--99999999--5555--4444-----------------------|
A|--99999999--12121212--11111111--99999999--5555--4444-----------------------|
E|--77777777--10101010---9-9-9-9--77777777--3333--2222-----------------------|

Verse: 2x

Chorus: 2x

Bridge:
e|---------------------------------------------------------------------------|
B|---------------------------------------------------------------------------|
G|---------------------------------------------------------------------------|
D|--9~---12~---5~---12~---9~---12~---5~---121212-----------------------------|
A|--9~---12~---5~---12~---9~---12~---5~---121212-12-11-12-11-----------------|
E|--7~---10~---3~---10~---7~---10~---3~---101010-----------------------------|

Solo
e|---------------------------------------------------------------------------|
B|---------------------------------------------------------------------------|
G|---------------------------------------------------------------------------|
D|-------7-999-799-------7-999-799------7-999-799----------------------------|
A|--7-9-------------7-9-------------7-9-----------10-9-7----10-9-7-----------|
E|-------------------------------------------------------10--------10--------|

e|---------------------------------------------------------------------------|
B|---------------------------------------------------------------------------|
G|---------------------------------------------------------------------------|
D|-------7-999-799-------7-999-799------7-999-799----------------------------|
A|--7-9-------------7-9-------------7-9-----------10-9-7----10-9-7-----------|
E|-------------------------------------------------------10--------10--------|

Chorus: 2X

Outro: 1x
e|---------------------------------------------------------------------------|
B|---------------------------------------------------------------------------|
G|---------------------------------------------------------------------------|
D|--9~-----------------------------------------------------------------------|
A|--9~-----------------------------------------------------------------------|
E|--7~-----------------------------------------------------------------------|


| /  slide up
| \  slide down
| h  hammer-on
| p  pull-off
| ~  vibrato
| +  harmonic
| x  Mute note
===============================================================================
            
Submit corrections

comments powered by Disqus
↑ Back to top | 88 Fingers Louie Tabs for Apart At The Seams. Lyrics for acoustic guitar and electric guitar. Tablatures and chords are parodies/interpretations of the original songs. You may use it for private study, scholarship, research or language learning purposes only