» »

/0-9/883-tabs-62.html

»

883, Come Mai Bass tabs (ver.1)

Artists:  A B C D E F G H I J K L M N O P Q R S T U V W X Y Z # 

Come Mai Bass tabs (ver.1)

883 Tabs
 Rating:
4/5 (4 votes)
Come Mai lessons Tabs too difficult? Try these video lessons and learn fast
                -----------------------------------------------------------------------------------------------
Artist - 883
Song   - Come Mai
Album  - La dura legge del gol
-----------------------------------------------------------------------------------------------

/ - slide upwards
X - ghost note
o - 1/4 (timescale)


  OPENING:

    o . . . o . . . o . . . o . . . o . . . o . . . o . . . o . . . 
G |-3-----------------------------------------/-5-------------------|
D |-------3-------------------------------3-------------------------|
A |-------------1-------------------3-------------------------------|
E |-----------------------------------------------------------------|


  VERSE:

    o . . . o . . . o . . . o . . . o . . . o . . . o . . . o . . . 
G |-----------------------------------------------------------------|
D |-3-------------------------------------0-------------------------|
A |-------------0---5-----------3---1-----------3-------------------|
E |-----------------------------------------------------------------|


    o . . . o . . . o . . . o . . . o . . . o . . . o . . . o . . . 
G |-------------2---------------2---3-------------------------------|
D |-3-------------------------------------3-------------------------|
A |-----------------5---------------------------3-------------------|
E |-----------------------------------------------------------------|


    o . . . o . . . o . . . o . . . o . . . o . . . o . . . o . . . 
G |-----------------------------------------------------------------|
D |-------0-------------------------0-----3-----0-------------------|
A |-1-----------1---3-------------------------------1---------------|
E |-----------------------------------------------------------------|


    o . . . o . . . o . . . o . . . o . . . o . . . o . . . o . . . 
G |-----------------------------------------------------------------|
D |-------0-------------------------------2-------------------------|
A |-1-----------1---1---------------3-----------3---3---------------|
E |-----------------------------------------------------------------|


  BRIDGE:

    o . . . o . . . o . . . o . . . o . . . o . . . o . . . o . . . 
G |-----------------------------------------------------------------|
D |-------------3-----------3-5-3-----------------------------------|
A |-1-----1---x---------------------1-----1---x-----------------0---|
E |---------------------------------------------1-----------1-3-----|


    o . . . o . . . o . . . o . . . o . . . o . . . o . . . o . . . 
G |-----------------------------------------------------------------|
D |-------------3-----------3-5-3-----------------------------2-----|
A |-1-----1---x---------------------3-----3---x-3-----------3---3---|
E |-----------------------------------------------------------------|


    o . . . o . . . o . . . o . . . o . . . o . . . o . . . o . . . 
G |-----------------------------------------------------------------|
D |-------------3-----------3-5-3-----------------------------------|
A |-1-----1---x---------------------1-----1---x-----------------0---|
E |---------------------------------------------1-----------1-3-----|


    o . . . o . . . o . . . o . . . o . . . o . . . o . . . o . . . 
G |---------------------------------------------------------5-------|
D |-------------3-----------3-5-3---5---------------------5---------|
A |-1-----1---x---------------------------------3---3---------------|
E |-----------------------------------------------------------------|


  CHORUS:

    o . . . o . . . o . . . o . . . o . . . o . . . o . . . o . . . 
G |-----------------------------------------------------------------|
D |-3-----3-----3---2-----------2---0-----0-----3-------------------|
A |-----------------------------------------3-------------------0---|
E |-----------------------------------------------------------------|


    o . . . o . . . o . . . o . . . o . . . o . . . o . . . o . . . 
G |-----------------------------------------------------------------|
D |-----------------3-----------3---5---------------------------0---|
A |-1-----------1-----------------------------------3---------------|
E |---------------------------------------------3-------------------|


    o . . . o . . . o . . . o . . . o . . . o . . . o . . . o . . . 
G |-----------------------------------------------------------------|
D |-3-----3-----3---2-----------2---0-----------3-------------------|
A |-----------------------------------------3-------------------0---|
E |-----------------------------------------------------------------|


    o . . . o . . . o . . . o . . . o . . . o . . . o . . . o . . . 
G |-----------------------------------------------------------------|
D |-----------------3-----------------------------------------------|
A |-1-----------1-------------------3-----3-----3-------------------|
E |-------------------------------------------------1---------------|


  VERSE:

    o . . . o . . . o . . . o . . . o . . . o . . . o . . . o . . . 
G |-----------------------------------------------------------------|
D |-3-------------------------------------0-------------------------|
A |-------------0---5-----------3---1-----------3-------------------|
E |-----------------------------------------------------------------|


    o . . . o . . . o . . . o . . . o . . . o . . . o . . . o . . . 
G |-------------2---------------2---3-------------------------------|
D |-3-------------------------------------3-------------------------|
A |-----------------5---------------------------3-------------------|
E |-----------------------------------------------------------------|


    o . . . o . . . o . . . o . . . o . . . o . . . o . . . o . . . 
G |-----------------------------------------------------------------|
D |-------0-------------------------0-----3-----0-------------------|
A |-1-----------1---3-------------------------------1---------------|
E |-----------------------------------------------------------------|


    o . . . o . . . o . . . o . . . o . . . o . . . o . . . o . . . 
G |-----------------------------------------------------------------|
D |-------0-------------------------------2-------------------------|
A |-1-----------1---1---------------3-----------3---3---------------|
E |-----------------------------------------------------------------|


  BRIDGE:

    o . . . o . . . o . . . o . . . o . . . o . . . o . . . o . . . 
G |-----------------------------------------------------------------|
D |-------------3-----------3-5-3-----------------------------------|
A |-1-----1---x---------------------1-----1---x-----------------0---|
E |---------------------------------------------1-----------1-3-----|


    o . . . o . . . o . . . o . . . o . . . o . . . o . . . o . . . 
G |-----------------------------------------------------------------|
D |-------------3-----------3-5-3-----------------------------2-----|
A |-1-----1---x---------------------3-----3---x-3-----------3---3---|
E |-----------------------------------------------------------------|


    o . . . o . . . o . . . o . . . o . . . o . . . o . . . o . . . 
G |-----------------------------------------------------------------|
D |-------------3-----------3-5-3-----------------------------------|
A |-1-----1---x---------------------1-----1---x-----------------0---|
E |---------------------------------------------1-----------1-3-----|


    o . . . o . . . o . . . o . . . o . . . o . . . o . . . o . . . 
G |---------------------------------------------------------5-------|
D |-------------3-----------3-5-3---5---------------------5---------|
A |-1-----1---x---------------------------------3---3---------------|
E |-----------------------------------------------------------------|


  CHORUS [x3]:

    o . . . o . . . o . . . o . . . o . . . o . . . o . . . o . . . 
G |-----------------------------------------------------------------|
D |-3-----3-----3---2-----------2---0-----0-----3-------------------|
A |-----------------------------------------3-------------------0---|
E |-----------------------------------------------------------------|


    o . . . o . . . o . . . o . . . o . . . o . . . o . . . o . . . 
G |-----------------------------------------------------------------|
D |-----------------3-----------3---5---------------------------0---|
A |-1-----------1-----------------------------------3---------------|
E |---------------------------------------------3-------------------|


    o . . . o . . . o . . . o . . . o . . . o . . . o . . . o . . . 
G |-----------------------------------------------------------------|
D |-3-----3-----3---2-----------2---0-----------3-------------------|
A |-----------------------------------------3-------------------0---|
E |-----------------------------------------------------------------|


    o . . . o . . . o . . . o . . . o . . . o . . . o . . . o . . . 
G |-----------------------------------------------------------------|
D |-----------------3-----------------------------------------------|
A |-1-----------1-------------------3-----3-----3-------------------|
E |-------------------------------------------------1---------------|
            
Submit corrections

comments powered by Disqus
↑ Back to top | 883 Bass for Come Mai. Lyrics for acoustic guitar and electric guitar. Tablatures and chords are parodies/interpretations of the original songs. You may use it for private study, scholarship, research or language learning purposes only