» » »

Winners Tabs (ver.2)

Artists:  A B C D E F G H I J K L M N O P Q R S T U V W X Y Z # 

Winners Tabs (ver.2)

7 Seconds Of Love
Rating:
4/5 (1 vote)

Tabs too difficult? Try these video lessons and learn fast.
                Intro

G |--------------------------------|
D |---9-9-7-7-6-6-4----------------|
A |-----------------7--7-5-5-4-4---|
E |--------------------------------|

Main Riff

G |---------------------------------|
D |-----7-9-7-----------------------|
A |-----------7^--------------------|
E |---7------------0-12-0-13-0-14---|
            
Tabs too difficult? Try these video lessons and learn fast.




comments powered by Disqus
↑ Back to top | Tablatures and chords are parodies/interpretations of the original songs. You may use it for private study, scholarship, research or language learning purposes only