» » »

7 Seconds Of Love, Winners Tabs (ver.1)

Artists:  A B C D E F G H I J K L M N O P Q R S T U V W X Y Z # 

Winners Tabs (ver.1)

7 Seconds Of Love Tabs
Rating:
0/5 (0 votes)
Winners lessons Tabs too difficult? Try these video lessons and learn fast
                Intro
e |---------------------------------------------|
B |---5h6h7-5h6h7---5h6h7-5h6h7---5h6h7-5h6h7---|
G |---------------------------------------------|
D |---------------------------------------------|
A |---------------------------------------------|
E |---------------------------------------------|

e |---------------------------------------------|
B |---5h6h7-5h6h7---5h6h7-5h6h7---5h6h7-5h6h7---|
G |---------------------------------------------|
D |---------------------------------------------|
A |---------------------------------------------|
E |---------------------------------------------|

e |------------------------------------|
B |---0--0-0-0-0-0-0-0-0-0-0-0-0-0-0---|
G |------------------------------------|
D |------------------------------------|
A |------------------------------------|
E |------------------------------------|

Verse Main Riff ON TRUMPET
e |-----5-7-5--------------------------|
B |---0-------7-5--5h6h7-5h6h7-5h6h7---|
G |------------------------------------|
D |------------------------------------|
A |------------------------------------|
E |------------------------------------|

Verses
e |---7-7-7-7--5-5-5-5---|
B |---7-7-7-7--5-5-5-5---|
G |---8-8-8-8--5-5-5-5---|
D |---9-9-9-9--7-7-7-7---|  x8
A |---9-9-9-9--7-7-7-7---|
E |---7-7-7-7--5-5-5-5---|


Solo
e |---------------------------------------------------------------|
B |---3-3-0-0--3-3-0-0--3-3-0-0---0--0-0-0-0-0-0-0-0-0-0-0-0-0-0--|
G |---4-4-4-4--4-4-4-4--4-4-4-4-----------------------------------|
D |---------------------------------------------------------------|
A |---------------------------------------------------------------|
E |---------------------------------------------------------------|

e |-------------------------|
B |---3-0---0---------------|
G |-------2---2-2-3-3-4-4---|
D |-------------------------|
A |-------------------------|
E |-------------------------|

e |---------------------------------------------------------------------|
B |---3-0---0---------------3-0---0---------------3-0---0---------------|
G |-------2---------------------2---------------------2-----------------|
D |-----------2-2-3-3-4-4-----------2-2-3-3-4-4-----------2-2-3-3-4-4---|
A |---------------------------------------------------------------------|
E |---------------------------------------------------------------------|

e |----0--0--0--0--0---0--0--0--0---0--0--0--0--0---0--0--0---|
B |---10\12-12-12-12--10-10-10-10--10\12-12-12-12--10-14-10---|
G |-----------------------------------------------------------|
D |-----------------------------------------------------------| x2
A |-----------------------------------------------------------|
E |-----------------------------------------------------------|
 
Ending
e |----------------------------------------18---|
B |---12-12-10-11-12-12-12-10-11-10-11-12-------|
G |---------------------------------------------|
D |---------------------------------------------|
A |---------------------------------------------|
E |---------------------------------------------|
            

comments powered by Disqus
↑ Back to top | 7 Seconds Of Love Tabs for Winners. Lyrics for acoustic guitar and electric guitar. Tablatures and chords are parodies/interpretations of the original songs. You may use it for private study, scholarship, research or language learning purposes only