» » »

7 Seconds Of Love, Unemployed Bass tabs (ver.1)

Artists:  A B C D E F G H I J K L M N O P Q R S T U V W X Y Z # 

Unemployed Bass tabs (ver.1)

7 Seconds Of Love Tabs
 Rating:
4/5 (4 votes)
Unemployed lessons Tabs too difficult? Try these video lessons and learn fast
                
Main Riff/Intro

G |---------------------|
D |---------------------|
A |----7---7------------| 
E |--0---0---7---10-9-7-|

    Bridge
G |--------------------------|
D |-----12-------------------|
A |---------14--12-12--11-12-|
E |--10----------------------|

The main riff is repeated throughout most of the song. For more information on 7 seconds 
            
Submit corrections

comments powered by Disqus
↑ Back to top | 7 Seconds Of Love Bass for Unemployed. Lyrics for acoustic guitar and electric guitar. Tablatures and chords are parodies/interpretations of the original songs. You may use it for private study, scholarship, research or language learning purposes only