» » »

We're Gonna Fight Tabs (ver.2)

Artists:  A B C D E F G H I J K L M N O P Q R S T U V W X Y Z # 

We're Gonna Fight Tabs (ver.2)

7 Seconds
Rating:
0/5 (0 votes)

Hard to play? Try these video lessons and learn fast.
                Intro and Verse:

E|-----------------------------------|
B|-----------------------------------|
G|------------------9----------------|
D|-6-6-6-6--9-9-9-9-9-9--------------|
A|-6-6-6-6--9-9-9-9-7-9--------------|
E|-4-4-4-4--7-7-7-7---7--------------|

Chorus:
E|-----------------------------------------|
B|-----------------------------------------|
G|-6-6-6-6---------9-9-9-9-----------------|
D|-6-6-6-6-6-6-6-6-9-9-9-9-9-9-9-9---------|
A|-4-4-4-4-6-6-6-6-7-7-7-7-9-9-9-9---------|
E|---------4-4-4-4---------7-7-7-7---------|

i don't know the solo, but the rhythm guitar is the same as the verse.

Outro:
E|------------------------------------------|
B|------------------------------------------|
G|-----------------9-9-9-9-6-6-6-6----------|
D|-6-6-6-6-9-9-9-9-9-9-9-9-6-6-6-6----------|
A|-6-6-6-6-9-9-9-9-7-7-7-7-4-4-4-4----------|
E|-4-4-4-4-7-7-7-7--------------------------|
            
Hard to play? Try these video lessons and learn fast. | Correct




comments powered by Disqus
↑ Back to top | Tablatures and chords are parodies/interpretations of the original songs. You may use it for private study, scholarship, research or language learning purposes only