» » »

7 Seconds, Trust Bass tabs (ver.1)

Artists:  A B C D E F G H I J K L M N O P Q R S T U V W X Y Z # 

Trust Bass tabs (ver.1)

7 Seconds Tabs
 Rating:
4/5 (4 votes)
Trust lessons Tabs too difficult? Try these video lessons and learn fast
                | Tab by:	HuelsiXX	    |
|-----------------------------------|


Verse
G|------------------------------------------------------------------------|
D|---4-4-4-4-4-4-4-4------------------------------------3-3-3-3-3-3-3-3---|
A|--------------------4-4-4-4-4-4-4-4--1-1-1-1-1-1-1-1--------------------|
E|------------------------------------------------------------------------|


Chorus
G|------------------------------------------------------------------------|
D|------------------------------------------------------------------------|
A|------------------------------------------------------5-5-5-5-5-5-5-5---|
E|---5-5-5-5-5-5-5-5--4-4-4-4-4-4-4-4--2-2-2-2-2-2-2-2--------------------|


Bridge
G|------------------------------------------------------------------------|
D|---3-3-3-3-3-3-3-3-------------------3-3-3-3-3-3-3-3--------------------|
A|--------------------4-4-4-4-4-4-4-4-------------------4-4-4-4-4-4-4-4---|
E|------------------------------------------------------------------------|


Verse 	4x
Chorus	4x
Verse 	4x
Chorus	4x
Bridge	2x
Verse 	4x
Chorus	4x
            
Submit corrections

comments powered by Disqus
↑ Back to top | 7 Seconds Bass for Trust. Lyrics for acoustic guitar and electric guitar. Tablatures and chords are parodies/interpretations of the original songs. You may use it for private study, scholarship, research or language learning purposes only