» » »

7 Seconds, Regress No Way Bass tabs (ver.1)

Artists:  A B C D E F G H I J K L M N O P Q R S T U V W X Y Z # 

Regress No Way Bass tabs (ver.1)

7 Seconds Tabs
 Rating:
4/5 (4 votes)
Regress No Way lessons Tabs too difficult? Try these video lessons and learn fast
                G---------------------------|
D---------------------11----|
A-33-333-33-333-33-------11-|
E------------------33-------|

G---------------------------|
D---------------33-11-------|
A---------------------11-33-|
E-33-333-33-333-------------|

G-55-555-55-555-------------|
D---------------33-11-------|
A---------------------11-33-|
E---------------------------|

G-----------------|
D-----------------|
A-11-111-11-111-1-|
E-----------------|

finish
G---
D---
A-3-
E---

listen to the song for the order..
  xxSID
            
Submit corrections

comments powered by Disqus
↑ Back to top | 7 Seconds Bass for Regress No Way. Lyrics for acoustic guitar and electric guitar. Tablatures and chords are parodies/interpretations of the original songs. You may use it for private study, scholarship, research or language learning purposes only