» » »

7 Seconds, Drug Control Tabs (ver.1)

Artists:  A B C D E F G H I J K L M N O P Q R S T U V W X Y Z # 

Drug Control Tabs (ver.1)

7 Seconds Tabs
 Rating:
4/5 (4 votes)
Drug Control lessons Tabs too difficult? Try these video lessons and learn fast
1
                ----------------------------------------------------------------------------
                             Drug Control- 7 seconds                       
----------------------------------------------------------------------------
i was trying to cover this song with my band but i couldent find a tab for
it...so i took the challange on..this is the best i oculd get it sounds really
accurate but there could be some mistakes...the recording sucks so it was  kinda
hard...but here it is!!!

Tuning: standard 
use distorition and alot of it!!!listen to the song for timing
verse1:
e|-----------------------------------------------------------------|
B|-----------------------------------------------------------------|
G|-9-9-9--6-6-6----------------------------------------------------|
D|-9-9-9--6-6-6-6--6--6--6--6--6--6--6/_____play faster------------|x4
A|-7-7-7--4-4-4-6--6--6--6--6--6--6--6\-----just the (4,6,6)-------|
E|-------------(4)(4)(4)(4)(4)(4)(4)(4)----------------------------|

chorus:
e|-----------------------------------------------------|
B|-----------------------------------------------------|
G|-7/8/9/10--10-10-10-10-10----------------------------|x2
D|-7/8/9/10--10-10-10-10-10----------------------------|                   
A|-5/6/7/8---8--8--8--8--8-----------------------------|
E|-----------------------------------------------------|
 then repeat verse again then the chorus one last time

end in(last note) :
e|-------------------------------------------|
B|-------------------------------------------|
G|---9/0-------------------------------------|
D|---9/0-------------------------------------|
A|---7/0-dont let the (0,0,0) ring at all!!)-|
E|-------------------------------------------|

agian listen to the song for timing...enjoy!!
            
Submit corrections

comments powered by Disqus
↑ Back to top | 7 Seconds Tabs for Drug Control. Lyrics for acoustic guitar and electric guitar. 1 Tablatures and chords are parodies/interpretations of the original songs. You may use it for private study, scholarship, research or language learning purposes only