» » »

7 Seconds, 99 Red Balloons Tabs (ver.1)

Artists:  A B C D E F G H I J K L M N O P Q R S T U V W X Y Z # 

99 Red Balloons Tabs (ver.1)

7 Seconds Tabs
Rating:
0/5 (0 votes)
99 Red Balloons lessons Tabs too difficult? Try these video lessons and learn fast
                Verse x4
     *=play x8 with palm-muting
eb|----------------------------------------------------------------------------------
Bb|----------------------------------------------------------------------------------
Gb|---*--*--*--*---------------------------------------------------------------------
Db|--2--4--7--9----------------------------------------------------------------------
Ab|--2--4--7--9----------------------------------------------------------------------
Db|--2--4--7--9----------------------------------------------------------------------


     Bridge
     *=play x7 with some palm muting on the 3 first times              
eb|--------------------------------------------------------------------------------->
Bb|--------------------------------------------------------------------------------->
Gb|--------------------------------------------------------------------------------->
Db|-2-----2-------2-----2------------2-----2-------2-----2-------------------------->
Ab|---4-4---4-------4-4---4-2----------4-4---4-------4-4---4-2---------------------->
Db|---------------------------2--------------------------------2-------------------->

eb|----------------------------------------------------------------------------------
Bb|----------------------------------------------------------------------------------
Gb|-------------------------------------------------------------------------------*--
Db|-2-----2---4-6-4-2-----2-----2-----7-7-7-9--2-----2---4-6-4-2-----2-----2-----7---
Ab|---4-4---4---------4-4---4-4---4---7-7-7-9----4-4---4---------4-4---4-4---4---7---
Db|-----------------------------------7-7-7-9------------------------------------7---


Now play the verse x6 without palm-muting, and the verse x4 with some palm-muting (listen to the song!)

Then play the bridge

Ok, now play the verse x8 and let ring on eb|-----|
                                          Bb|-----|
                                          Gb|-----|
                                          Db|--2--|
                                          Ab|--2--|
                                          Db|--2--|

Then let scream your guitar during the last verse!!

Now play the verse x4 and end on eb|-----|
                                 Bb|-----|
                                 Gb|-----|
                                 Db|--2--|
                                 Ab|--2--|
                                 Db|--2--|
            
Submit corrections

comments powered by Disqus
↑ Back to top | 7 Seconds Tabs for 99 Red Balloons. Lyrics for acoustic guitar and electric guitar. Tablatures and chords are parodies/interpretations of the original songs. You may use it for private study, scholarship, research or language learning purposes only