>
 >
Perdida De Tiempo

Perdida De Tiempo Guitar Tabs

6 Voltios - Perdida De Tiempo chords, tabs, tablatures, lyrics

Guitar lessons | Add/correct | Request | Top 50 tabs Artists:  A B C D E F G H I J K L M N O P Q R S T U V W X Y Z 0-9

Perdida De Tiempo Guitar Tabs – 6 Voltios

CD, Sheet music, Poster

Do you like Perdida De Tiempo? Share with your friends now
Tabs
For this tab use: 
  Em E5
e|-------|
b|-------|
g|-------|
d|-2--9--|
a|-2--9--|
e|-0--7--|
Intro

A5  D5-C#5-D5
Em  D5-C#5-D5
F#5 D5-C#5-D5
E5 D5 C#5 B5-C#5-B5

A5        Em
 No se tu, pero yo ya no siento
F#5                  D5
 lo q antes solia sentir
A5          Em
 yo pude ver, q jugaste conmigo
F#5                     D5
 mientras yo esperaba x ti

D5          E5           F#5           Em
 y si a ti no te importa x q a mi me debe de importar
D5          A5       Em-E5
 ya no lo tuve q pensar


CHORUS

D5        E5           F#5           Em
 guardare mi corazon para alguien q me ame de verdad
D5        A5               Em-E5
 fuiste una perdida de tiempo


A5  D5-C#5-D5
Em  D5-C#5-D5
F#5 D5-C#5-D5
E5 D5 C#5 B5-C#5-B5


A5                   Em
 Este juego es tan estupido y yo ya no juego
F#5                      D5
 x q estoy cansado de esperar
A5                  Em
 no entiendo x q nunka pudiste ser sincero
F#5                            D5
 si no me kieres dilo y yo me voy

D5        E5            F#5         E5
 fuiste toda la fuente de inspiracion y de dolor
D5     A5             Em-E5
 pero este sera el final


CHORUS

D5        E5           F#5           Em
 guardare mi corazon para alguien q me ame de verdad
D5        A5               Em-E5
 fuiste una perdida de tiempo


SOLO

   A5            Em            F#5            D5  x2
|----------------------------------------------|
|----------------------------------------------|
|---9-7-6---4-6-4-444-6-4---4-666666-7-6-4-----|
|-7-------7---------------7----------------7-7-|
|----------------------------------------------|
|----------------------------------------------|

   A5         Em          F#           D5            x2
|---------------------------------------------------|
|---------------------------------------------------|
|---9767-9767---9767-9767---9767-9767-976767-976767-|
|-7-------------------------------------------------|
|------------7-----------9--------------------------|
|---------------------------------------------------|

F#5 D5 A5 Em-E5

F#5       D5
 Te llame, pero nunka contestaste
A5       Em-E5
 Me aburri, de todas tus cojudeces
F#5       D5
 Yo ya no, luchare mas x ti
A5       Em-E5
 Yo mate, toda ilusion
F#5       D5
 Me largo....
A5       Em-E5
 Me voy

D5         E5              F#5              Em
 Y si a ti no te importa x q chucha a mi me debe de importar
D5         A5       Em-E5
 ya no lo tuve q pensar


CHORUS

D5        E5           F#5           Em
 guardare mi corazon para alguien q me ame de verdad
D5        A5               Em-E5
 fuiste una perdida de tiempo


OUTRO

   A5            Em            F#5           E5   D5  C# B C# B A5 x2
|----------------------------------------------------------------|
|----------------------------------------------------------------|
|---9-7-6---4-6-4-444-6-4---4-666666-7-6-4-6-999-777-666-4-6-4---|
|-7-------7---------------7------------------------------------7-|
|----------------------------------------------------------------|
|----------------------------------------------------------------|





Comments


Popular 6 Voltios tabs & chords
Nunca Te Quise Fallar Bass Tabs
Lejos Chords
19 AñOs Tabs
Chavo Tabs
Desde Que Te Conoci Tabs
En El Olvido Intro Tabs
Lejos 1 Tabs
Lucas Tabs
Mundo Perfecto Ukulele
Wirito Ukulele


Song lyrics



↑ Back to top | Tablatures and chords are parodies/interpretations of the original songs. You may use it for private study, scholarship, research or language learning purposes only
© 2014 AZChords.com Contact us | Privacy policy | DMCA | Add/correct tabs | Request tabs | Top 50 tabs