» » »

Madurar Bass tabs (ver.1)

Artists:  A B C D E F G H I J K L M N O P Q R S T U V W X Y Z # 

Madurar Bass tabs (ver.1)

6 Voltios
Rating:
0/5 (0 votes)

Hard to play? Try these video lessons and learn fast.
                introduccion
g-------------------------------------------------------
d-------------------------------------------------------
a-------------------------------------------------------
e-555555555555-333333-4444444-333333-444444-555555555555


intro 2
g-----------------------------
d-----------------------------
a-----------------------------
e-3--1--2--0--3--2--0--1--0--0


g------------------------
d------------------------
a------------------------
e-5-5-5-3-3-3-5-5-5-3-3-3


intro 3
g-------------------------------------------------------------
d-------------------------------------------------------------
a-------------------------------------------------------------
e-66666666666666-765-44444444444444-543-22222-11111-22222-3333


me siento solo , me siento tonto....
g--------------------------------------------------
d--------------------------------------------------
a--------------------------------------------------  x2
e-333333333333-11111111-22222222-44444-555555555555


toca el intro 3


trataste de darle un sentido a tu vida....
g--------------------------------------------------
d--------------------------------------------------
a--------------------------------------------------  x2
e-333333333333-11111111-22222222-44444-555555555555


g---------------------------
d---------------------------
a-------------------7-6-5-4-
e-66666-77777-55555---------


y en tu cabeza suena la voz....
g------------
d------------
a------------
e-3--1--2--33


y sigues siendo el mismo ....
g-------------------------------------------
d-------------------------------------------
a-------------------------------------------
e-33333333333333-1111111111111-2222222222222


no quedan neuronas x quemar....
g--------------------------------------------------
d--------------------------------------------------
a-----------------------------------------------3-3  x2
e-33333333333333-1111111111111-2222222222222-3-3---



toca el intro 3


y en tu cabeza suena la voz....
g------------
d------------
a------------
e-3--1--2--33


y sigues siendo el mismo ....
g-------------------------------------------
d-------------------------------------------
a-------------------------------------------
e-33333333333333-1111111111111-2222222222222


no quedan neuronas x quemar....
g--------------------------------------------------
d--------------------------------------------------
a-----------------------------------------------3-3  x2
e-33333333333333-1111111111111-2222222222222-3-3---
            
Hard to play? Try these video lessons and learn fast. | Correct




comments powered by Disqus
↑ Back to top | Tablatures and chords are parodies/interpretations of the original songs. You may use it for private study, scholarship, research or language learning purposes only