>
 >
Lucas

Lucas Guitar Tabs

6 Voltios - Lucas chords, tabs, tablatures, lyrics

Guitar lessons | Add/correct | Request | Top 50 tabs Artists:  A B C D E F G H I J K L M N O P Q R S T U V W X Y Z 0-9

Lucas Guitar Tabs – 6 Voltios

CD, Sheet music, Poster

Do you like Lucas? Share with your friends now
Bass TabsTabs
Una canción como ninguna sin lugar a duda, creo ke de una de las mejores de 6 voltios
la verdad sake de todas las verciones de lukas ke habian y korregi algunas kosas pero 
esta es a la perfeccion si no entienden ya problema suyo, esta 100% correcto aki les va 


     F#5                  C#5                       D#5               B5
E----------------------------------------------------------------------------------------
B---------------------------------------------------------------------------------------
G--11-11-----------------------------6--------------8-8----------------------------------
D--11-11------8--8--------11-11--8-----9---8---6----8-8-----8---8-----9-9------8-9-8-6---  X2
A -9---9-----9--9---9-----11-11---------------------6-6---9---9---9---9-9----9----------9-
E-------------------------9---9---------------------------------------7-7-----------------


F#5      C#5          D#5          B5   C#5
Mi perro mi mejor amigo de el nunca recibi una traicion
F#5     C#5         D#5          B5	 C#5    
y cuando me siento solo   lo miro y digo
F#5      C#5             D#5       A#5      B5 
Mi perro mi fiel compañero contigo yo miro la luna
   F#5        C#5     F#5(2) F5(2) G#5(2)
y olvido esta soledad


     F#5                  C#5                       D#5               B5
E----------------------------------------------------------------------------------------
B---------------------------------------------------------------------------------------
G--11-11-----------------------------6--------------8-8----------------------------------
D--11-11------8--8--------11-11--8-----9---8---6----8-8-----8---8-----9-9------8-9-8-6---  X2
A -9---9-----9--9---9-----11-11---------------------6-6---9---9---9---9-9----9----------9-
E-------------------------9---9---------------------------------------7-7-----------------


F#5         C#5             D#5       B5     C#5
Prefiero un perro que una perra por eso te quedaste atrás
F#5      C#5         D#5         B5 	   C#5 
y cuando me siento solo    lo miro y digo

F#5      C#5             D#5       A#5       B5
Mi perro mi fiel compañero contigo yo miro la luna
   F#5        C#5     F#5(2) F5(2) G#5(2)
y olvido esta soledad


F#5      C#5             D#5       A#5
Mi perro mi fiel compañero contigo yo caminaré 
B5 F#5        C#5        F#5(2) F5(2) G#5(2)
las calles de esta ciudad

F#5 B5 A#5(x2)
F5 A#5 G#5(X2)
F#5 B5 A#5
F#5 A#5 B5
F#5 B5 A#5
F#5 A#5 B5 A#5

(va una vez con distorsión (todo), luego se mutea hasta la parte donde se deja de repetir y va con distorsión para 
 terminar el riff)

A ka akompaña al bajo las siguientes notas F# C#5 D#5 B5 C#5 ( esto del bajo se repite dos veces pero en la segunda 
ves la guitarra va en  tapado o pm komo le llaman algunos )


E-------------------------------------------------------------------------------------------------------------------------
B-------------------------------------------------------------------------------------------------------------------------
G-------------------------------------------------------------------------------------------------------------------------
D-------8-9-8----8-9-8--------------------8--------------------8-9-8---8-9-8--------------------------------------   x 2
A---9----------9-------------------8-9-11------11-9--8-----9----------9---------------6-9-6-----8-11-8---------
E-----------------------------10--------------------------------------------------------7-----------9-------------------

F#5      C#5             D#5       A#5     B5
Mi perro mi fiel compañero contigo yo miro la luna
   F#5        C#5     F#5(2) F5(2) G#5(2)
y olvido esta soledad

F#5      C#5             D#5       A#5
Mi perro mi fiel compañero contigo yo caminaré 
B5 F#5        C#5        F#5(2) F5(2) G#5(2)
las calles de esta ciudad

   

     F#5                  C#5                       D#5               B5
E----------------------------------------------------------------------------------------
B---------------------------------------------------------------------------------------
G--11-11-----------------------------6--------------8-8----------------------------------
D--11-11------8--8--------11-11--8-----9---8---6----8-8-----8---8-----9-9------8-9-8-6---  X2
A -9---9-----9--9---9-----11-11---------------------6-6---9---9---9---9-9----9----------9-
E-------------------------9---9---------------------------------------7-7-----------------

F#5 

Y un saludo para todos los perros de mierda ke tengo por amigos





Comments


Popular 6 Voltios tabs & chords
En El Olvido Bass Tabs
Libertad Bass Tabs
Desde Que Te Conoci 1 Tabs
En El Olvido Intro Tabs
Eres Todo Para Mi Tabs
Generacion Perdida Tabs
Generacion Perdida 1 Tabs
Loco Tabs
Lejos Ukulele
Mundo Perfecto Ukulele


Song lyrics



↑ Back to top | Tablatures and chords are parodies/interpretations of the original songs. You may use it for private study, scholarship, research or language learning purposes only
© 2014 AZChords.com Contact us | Privacy policy | DMCA | Add/correct tabs | Request tabs | Top 50 tabs