» » »

6 Voltios, Chicas Tontas Tabs (ver.1)

Artists:  A B C D E F G H I J K L M N O P Q R S T U V W X Y Z # 

Chicas Tontas Tabs (ver.1)

6 Voltios Tabs
 Rating:
3.8/5 (5 votes)
Chicas Tontas lessons Tabs too difficult? Try these video lessons and learn fast
1
                CHICAS TONTAS



INTRO:

2x

E---------------------------------------------------------------------------
B-0-0-4-0-5-0-4-0-7-0-5-0-4-0-5-0-0-0-4-0-2-0-4-0-5-0-4-0-2-0---------------
G---------------------------------------------------------------------------
D---------------------------------------------------------------------------
A---------------------------------------------------------------------------
E---------------------------------------------------------------------------



VERSO 1 :

4x

E---------------------------------------------------------------------------
B---------------------------------------------------------------------------
G-4-4-4-4-4-4---10-10-10----------------------------------------------------
D-4-4-4-4-4-4---10-10-10--11-11-11------------------------------------------
A-2-2-2-2-2-2---8--8--8---11-11-11------------------------------------------
E----------------------------9--9--9----------------------------------------


PUENTE :


E---------------------------------------------------------------------------
B-0-0-4-0-5-0-4-0-7-0-5-0-4-0-5-0-0-0-4-0-2-0-4-0-5-0-4-0-2-0---------------
G---------------------------------------------------------------------------
D---------------------------------------------------------------------------
A---------------------------------------------------------------------------
E---------------------------------------------------------------------------


E------------------------------------------------------------------
B------------------------------------------------------------------
G-4-4-4-4-4-4---10-10-10------------10-10-10-----------------------
D-4-4-4-4-4-4---10-10-10--11-11-11--10-10-10-----------------------
A-2-2-2-2-2-2---8--8--8---11-11-11--8--8--8------------------------
E--------------------------9--9--9---------------------------------



E------------0-2-4-2-0--2-4-6-4-2--0-2-0------------------------------------
B-0-2-4-2-0------------------------------4-2--------------------------------
G---------------------------------------------------------------------------
D---------------------------------------------------------------------------
A---------------------------------------------------------------------------
E---------------------------------------------------------------------------


E---------------------------------------------------------------------------
B-0-0-4-0-5-0-4-0-7-0-5-0-4-0-5-0-0-0-4-0-2-0-4-0-5-0-4-0-2-0---------------
G---------------------------------------------------------------------------
D---------------------------------------------------------------------------
A---------------------------------------------------------------------------
E---------------------------------------------------------------------------



VERSO 2:

4X


E---------------------------------------------------------------------------
B---------------------------------------------------------------------------
G-4-4-4-4-4-4---10-10-10----------------------------------------------------
D-4-4-4-4-4-4---10-10-10--11-11-11------------------------------------------
A-2-2-2-2-2-2---8--8--8---11-11-11------------------------------------------
E----------------------------9--9--9----------------------------------------



PUENTE 2 :

E---------------------------------------------------------------------------
B---------------------------------------------------------------------------
G---9-------9-4-------------------------------------------------------------
D-7-9---4-6-9-4-4-----------------------------------------------------------
A-7-7-5-4-6-7-2-4-----------------------------------------------------------
E-5---5-2-4-----2-----------------------------------------------------------


VERSO 3 :

4x

E-------------------------------------------------------------------
B-------------------------------------------------------------------
G---9-4-------------------------------------------------------------
D-6-9-4-4-----------------------------------------------------------
A-6-7-2-4-----------------------------------------------------------
E-4-----2-----------------------------------------------------------


OUTRO :

HASTA Q TERMINE LA CANCION

E---------------------------------------------------------------------------
B--0-0-2-0-0-5-5-4-2-0-2----------------------------------------------------
G---------------------------------------------------------------------------
D---------------------------------------------------------------------------
A---------------------------------------------------------------------------
E---------------------------------------------------------------------------



LETRA :


esperando una llamada
viernes x la noche no tengo nada que hacer
aburrido de esta ciudad de mierda
sera que no me incluyes en tus planes otra vez
nunca voy a entender a todas esas chicas tontas
el viernes por la noche buscando a su principe azul
quizas algun dia una de ellas venga a buscarme
encontrara a su principe rojo en cuento de terror

Quien te crees para decirme a mi
todo lo correcto con todo lo que hablas mal de mi
puros chismes, palabras a mis espaldas
chicas tontas con ellas me siento huevon

nunca voy a entender a todas esas chicas tontas
el viernes por la noche buscando a su principe azul
quizas algun dia una de ellas venga a buscarme
encontrara a su principe rojo en cuento de terror

Chicas tontas con simples caras de valor
superficiales, no son mi tipo
orgulloso de lo quee soy
por ellas no voy a cambiar no piensen algo que no soy
chicas tontas con simples caras de valor 
superficiales, no son mi tipo
orgulloso de lo que soy
por ellas no voy a cambiar no piensen algo que no soy




ViVa eL PuNk PeRuAnO

SALUDOA PARA LA BANDA (H,M,A,S)
            
Submit corrections

comments powered by Disqus
↑ Back to top | 6 Voltios Tabs for Chicas Tontas. Lyrics for acoustic guitar and electric guitar. 1 Tablatures and chords are parodies/interpretations of the original songs. You may use it for private study, scholarship, research or language learning purposes only