» » »

Cactus Bass tabs (ver.1)

Artists:  A B C D E F G H I J K L M N O P Q R S T U V W X Y Z # 

Cactus Bass tabs (ver.1)

6 Voltios
Rating:
0/5 (0 votes)

Hard to play? Try these video lessons and learn fast.
                
Verso:
           Nos fui...
G|--------------------------------------------|
D|-------------1-4------1-4-------------------|
A|---------2-2------222---------1---------4---|
E|00-0-2-0------------------2-2---2---222---2-|

  No lo ves?...
G|------------------------------------|
D|-----------------------7/9--------11|
A|----2---------2----7-7----7--9-99---|
E|4-4---4---444---4-------------------|

  Vimos...
G|---------------------------------------------------------------|
D|----1-4------1-4-----------------------------------------------|
A|2-2------222----------1---------4---------2---------2----------|
E|------------------2-2---2---222---2---4-4---4---444---4--0-2---|



Coro:

  ese cactus...                 pero yo...
G|----------------------------------------------------------|
D|----------------------------------------------------------|
A|----------------2-22-22-2---------------------2-22-22-2---|
E|0-00-00-2-22-22----------4-2--0-00-00-2-22-22----------2-4|

   La natu..
G|----------------------------------------------------------------|
D|----------------------------------------------------------------|
A|-----------------------------------------------22-22-22-22-22-22|
E|0-00-00-2-22-22-4-44-44-4--20-00-00-2-22-22---------------------|

  y sobre...
G|------------------------------------|
D|------------------------------------|
A|-------------------22-22-22-22-22-22|
E|0-00-00-2-22-22---------------------|



Repite verso.
Repite coro pero variando el final así:


  y sobre...
G|---------------------------------|
D|---------------------------------|
A|----------------2-22-22-2--14/2--|
E|0-00-00-2-22-22------------------|


outro:

  ese cactus...
G|-----------------------------------------------|
D|-----------------------------------------------|  x2
A|2-22-22-2-22-22--------------------------------|
E|----------------2-22-22-2-22-22-0-00-00---22-22|

y termina en:
G|---|
D|---|
A|-2-|
E|---|
            
Hard to play? Try these video lessons and learn fast. | Correct




comments powered by Disqus
↑ Back to top | Tablatures and chords are parodies/interpretations of the original songs. You may use it for private study, scholarship, research or language learning purposes only