>
 >
Trip

Trip Guitar Tabs

6 Cycle Mind - Trip chords, tabs, tablatures, lyrics

Guitar lessons | Add/correct | Request | Top 50 tabs Artists:  A B C D E F G H I J K L M N O P Q R S T U V W X Y Z 0-9

Trip Guitar Tabs – 6 Cycle Mind

CD, Sheet music, Poster

Do you like Trip? Share with your friends now
ChordsTabsUkulele

TUNING: half step down/e flat (one fret lower)

gtr1- rye sarmiento
gtr2- chuck isidro

intro:
gtr1
eb----------.
Bb----------.
Gb----------.2x
Db--5-5--7--.
Ab--2-3--5--.
Eb----------.

then...
gtr 2 enters
eb-------3~-.
Bb-----3----.
Gb---0------.
Db-0--------.
Ab----------.
Eb----------.
intro 2:
gtr1
eb----------.
Bb----------.
Gb----------.4x
Db--5-5--7--.
Ab--2-3--5--.
Eb----------.

gtr2
eb----3-----3--3h5-3---3~-.---3-----3--5/7-5--3~-.
Bb--------3----------3----.-------3--------------.
Gb--0---0-----------------.-0---0----------------.
Db------------------------.----------------------.
Ab------------------------.----------------------.
Eb------------------------.----------------------.

gtr2 (continued)
eb----3-----3--3h5-3---3~-.-8\7------------------.
Bb--------3----------3----.-----8---8-10/12-10-8-.
Gb--0---0-----------------.-------7--------------.
Db------------------------.----------------------.
Ab------------------------.----------------------.
Eb------------------------.----------------------.


verse:
gtr1-strum once
eb--3--.--3--.--3--.--2--.
Bb--3--.--3--.--3--.--3--.
Gb--0--.--2--.--0--.--2--. 2x
Db--0--.--2--.--2--.--0--.
Ab--2--.--0--.--3--.--x--.
Eb--3--.--0--.--0--.--x--.

gtr2
eb--------3--.--------3--.--------3--.--------2--.
Bb------3----.------3----.------3----.------3----.
Gb----0------.----2------.----0------.----2------. 2x
Db-----------.-----------.-----------.--0--------.
Ab-----------.--0--------.--3--------.-----------.
Eb--3--------.-----------.-----------.-----------.


bridge:
gtr1-strum once
eb--0--.--2--.--3--.--2--.
Bb--3--.--3--.--3--.--3--.
Gb--0--.--4--.--5--.--2--. 2x
Db--2--.--4--.--5--.--0--.
Ab--0--.--2--.--3--.--x--.
Eb--x--.--2--.--3--.--x--.

gtr2
eb--------0--.--------2--.--------3--.--------2--.
Bb------3----.------3----.------3----.------3----.
Gb----0------.----4------.----5------.----2------. 2x
Db--2--------.-----------.-----------.--0--------.
Ab-----------.--2--------.--3--------.-----------.
Eb-----------.-----------.-----------.-----------.


refrain:
gtr1-strum once
eb--0--.--2--.--3--.--2--.
Bb--0--.--3--.--3--.--3--.
Gb--0--.--4--.--5--.--2--. 2x
Db--2--.--4--.--5--.--0--.
Ab--2--.--2--.--3--.--x--.
Eb--0--.--2--.--3--.--x--.

gtr2
eb--------0--.--------2--.--------3--.--------2--.
Bb------3----.------3----.------3----.------3----.
Gb----0------.----4------.----5------.----2------. 2x
Db--2--------.-----------.-----------.--0--------.
Ab-----------.--2--------.--3--------.-----------.
Eb-----------.-----------.-----------.-----------.


chorus:
gtr1
eb----------------.
Bb----------------.
Gb----------------. 2x
Db--5--7--5-5--7--.
Ab--2--5--2-3--5--.
Eb----------------.

gtr2
eb--3--.--3--.----3---3--.--3--.
Bb--3--.--3--.----3---3--.--2--.
Gb--0--.--2--.-----------.--3--. 2x
Db--0--.--2--.-----------.--0--.
Ab--2--.--0--.--2---3----.--x--.
Eb--3--.--0--.-----------.--x--.

both guitars:
eb-----.--2--.--3--.
Bb-----.--3--.--3--.
Gb--2--.--4--.--5--.
Db--2--.--4--.--5--.
Ab-----.--2--.--3--.
Eb-----.--2--.--3--.


after chorus part:
gtr1
eb----------.
Bb----------.
Gb----------.2x
Db--5-5--7--.
Ab--2-3--5--.
Eb----------.

gtr2
eb----3-----3--3h5-3---3~-.-8\7------------------.
Bb--------3----------3----.-----8---8-10/12-10-8-.
Gb--0---0-----------------.-------7--------------.
Db------------------------.----------------------.
Ab------------------------.----------------------.
Eb------------------------.----------------------.

verse:
gtr1
eb--3--.--3--.--3--.--2--.
Bb--3--.--3--.--3--.--3--.
Gb--0--.--2--.--0--.--2--. 2x
Db--0--.--2--.--2--.--0--.
Ab--2--.--0--.--3--.--x--.

repeat: bridge
        refrain
        chorus


adlib:
gtr1:
eb--0--.--2--.--3--.--2--.
Bb--0--.--3--.--3--.--3--.
Gb--0--.--4--.--5--.--2--. 2x
Db--2--.--4--.--5--.--0--.
Ab--2--.--2--.--3--.--x--.
Eb--0--.--2--.--3--.--x--.


repeat: refrain
        chorus 2x

last part:
both guitars:
eb-----.--2--.--3--.
Bb-----.--3--.--3--.
Gb--2--.--4--.--5--. 3x
Db--2--.--4--.--5--.
Ab-----.--2--.--3--.
Eb-----.--2--.--3--.


Outro:
gtr1
eb----------.
Bb----------.
Gb----------.2x
Db--5-5--7--.
Ab--2-3--5--.
Eb----------.

gtr2
eb----3-----3--3h5-3---3~-.-8\7-------------.--P--.
Bb--------3----------3----.-----8---8---12--.--A--.
Gb--0---0-----------------.-------7---------.--U--.
Db------------------------.-----------------.--S--.
Ab------------------------.-----------------.--E--.
Eb------------------------.-----------------.--!--.

last chord:
gtr1
eb--3~--.
Bb--3~--.
Gb--0~--.
Db--0~--.
Ab--2~--.
Eb--3~--.

gtr2
eb--3~--.
Bb--3~--.
Gb--4~--.
Db--5~--.
Ab--5~--.
Eb--3~--.





Comments


Popular 6 Cycle Mind tabs & chords
Landas Chords
Tunay Chords
Walang Hanggan Chords
Alapaap 3 Tabs
Biglaan 2 Tabs
Pa Ba Tabs
Buhay Ukulele
Gaya Ng Noon Ukulele
Magsasaya Ukulele
Prisesa Ukulele


Song lyrics



↑ Back to top | Tablatures and chords are parodies/interpretations of the original songs. You may use it for private study, scholarship, research or language learning purposes only
© 2014 AZChords.com Contact us | Privacy policy | DMCA | Add/correct tabs | Request tabs | Top 50 tabs