» » »

6 Cycle Mind, Sige Tabs (ver.9)

Artists:  A B C D E F G H I J K L M N O P Q R S T U V W X Y Z # 

Sige Tabs (ver.9)

6 Cycle Mind Tabs
 Rating:
4/5 (4 votes)
Sige lessons Tabs too difficult? Try these video lessons and learn fast
                Band: 6 Cycle Mind

Hopefully, I got the intro tabs and song chords right. Hey, I'm only 14.
Hope you enjoy playing the song as much as I do. ;)


Intro: (w/ overdrive)
e----------------------------------------|
B----------------------------------------|
G----------------------------------------|
D----------------------------------------|
A--3-0---0---5-6-7-6-5--3-5--------------|
E------3---------------------------------|


e----------------------------------------|
B------------5-4-3-----------------------|
G-------------------0-2------------------|
D----------------------------------------|
A--3-0---0-------------------------------|
E------3---------------------------------|

Verse 1:
   C       G       F       G
e----------------------------------------|\
B----------------------------------------| \
G--0-------0-------2-------0-------------|  \ w/o
D--2-(8x)--0-(8x)--3-(8x)--0-(8x)--------|  / overdrive
A--3-------2-------3-------2-------------| /
E----------------------------------------|/
   Sige...       ..Kitang-kita ko...

(W/ overdrive):
C            G
Sige, wag na nating pigilan
   F                   G
At di magtatagal, tayo ay liligaya


Pre-Chorus:

   Em      F                 Em      F
e---------------------------------------------------|
B---------------------------------------------------|
G----------2-------------------------2--------------|
D--2-------3-(4x)--------2---2-------3-(4x)-------2-|
A--2-(5x)--3-------3-4-5-----2-(5x)--3------3-4-5---|
E--0-------------------------0----------------------|
  Okay..   lang naman ang a--ting... usapan...

Em           F
Hindi nalang babalikan
F                 G
Ang nakaraan, ang nakaraan


Chorus:
C          G
Ayos lang, basta't kasama
F(stop strum)        F(enter)   G
Konting alak lang, kahit walang pulutan
C           G
Ang minsan, naaalala
F                   G
Di magtatagal, tayo ay liligaya

Verse 2: (**same with Verse 1**)
Sige, pagpatuloy niyo lang
Unti-unting lunudin sa kasiyahan
Sige, pagpasensiyahan na lang
Mga pumipigil sa ating ligaya

(*Pre-chorus*)
(*Chorus*)

(*Bridge [solo part] = I suggest you follow the solo tab by Josh Bier)

(*Chorus*2x)

(Repeat Intro)


That's practically all of it. Hehehe. Enjoy!
            
Submit corrections

comments powered by Disqus
↑ Back to top | 6 Cycle Mind Tabs for Sige. Lyrics for acoustic guitar and electric guitar. Tablatures and chords are parodies/interpretations of the original songs. You may use it for private study, scholarship, research or language learning purposes only