>
 >
Sandalan 1

Sandalan 1 Guitar Tabs

6 Cycle Mind - Sandalan 1 chords, tabs, tablatures, lyrics

Guitar lessons | Add/correct | Request | Top 50 tabs Artists:  A B C D E F G H I J K L M N O P Q R S T U V W X Y Z 0-9

Sandalan 1 Guitar Tabs – 6 Cycle Mind

CD, Sheet music, Poster

Do you like Sandalan 1? Share with your friends now
Bass TabsBass Tabs v2ChordsChords v2Chords v3Chords v4TabsTabs v2Tabs v3Ukulele
Song           : Sandalan
Band           : 6 Cycle Mind
Album          : Panorama
Cp no.         : 09157906477 

Note: I try the ver. 1 but definitely wrong,, So I tabbed the wholesong correctly!!!
      Plz... rate this tab!!thnx!!=)

Intro:
e----------------------------------|
b-------------------15~-------15~--|
g-11h12(12x)then-11-----11-12------|(2x)
d----------------------------------|
a----------------------------------|
E----------------------------------|
Then 
Guitar 1:
e----------------------------------||
b-------------------15~-------15~--||
g-11h12(12x)then-11-----11-12------||
d----------------------------------||
a----------------------------------||
E----------------------------------||
Guitar 2:(strumming not shown)     ||(2x)
e-3--------------------------------||
b-3------1-------3-------1---------||
g-0------2-------4-------2---------||
d-0------2-------4-------2---------||
a-2------0-------2-------0---------||
E-3--------------------------------||

Verse:
e------1~------1~-------1~---|
b----------------------------|
g---4-------4--------4-------|
d-5-------5--------5---------|
a----------------------------|
E----------------------------|
Then
e----------------------------------|
b-------------------15~-------15~--|
g-11h12(29x)then-11-----11-12------|
d----------------------------------|
a----------------------------------|
E----------------------------------|

Pre-Chorus:
e----------------------0000---2222-|
b-5/10-5/10-/13-5/10---1111---3333-|
g----------------------0000---2222-|
d----------------------2222---0000-|
a----------------------3333--------|
E----------------------------------|

Chorus:
(strumming not shown)
e-3---0-------0--|
b-3---1---3---1--|
g-0---2---4---2--|(4x)
d-0---2---4---2--|
a-2---0---2---0--|
E-3--------------|

Solo:
Its not to hard...it sound pretty close!!,,just listen to the song to ge the timing..
e-(10)--10-15-10~---------15----------------------|
b-------------------------15-12-15-----12-15------|
g--------------------12~-----12-14-12~----14-12~--|
d-----------------12---------------12~-------12~--|
a-------------------------------------------------|
E-------------------------------------------------|

=END=

=====================================================================
Hi to all KETEANS specially to Camille, bandm8s ko!!!!
Hehe!! Khit natalo tyo nung November 12 ng battle of the band!
Kz bata pa tyo di tulad ng mga kalaban ntin lolo n ntin cla!!hehe!!
SA x-mas party nlng tyo mag concert sa dec. 21!!hehe!! yung mga gustong 
Manood,punta kyo!!!!bamboo,sugarfee,the speaks,etc. punta kyo!!joke!!!
=====================================================================





Comments


Popular 6 Cycle Mind tabs & chords
Across The Universe Chords
Fall Out Chords
Kung Wala Na Nga Chords
Prinsesa 1 Tabs
Touch Tabs
Tunay Intro Tabs
Umaasa Tabs
Hula Ni Juan Ukulele
If Only Ukulele
Online Ukulele


Song lyrics



↑ Back to top | Tablatures and chords are parodies/interpretations of the original songs. You may use it for private study, scholarship, research or language learning purposes only
© 2014 AZChords.com Contact us | Privacy policy | DMCA | Add/correct tabs | Request tabs | Top 50 tabs