» » »

6 Cycle Mind, Pa Ba Tabs (ver.7)

Artists:  A B C D E F G H I J K L M N O P Q R S T U V W X Y Z # 

Pa Ba Tabs (ver.7)

6 Cycle Mind Tabs
 Rating:
4/5 (4 votes)
Pa Ba lessons Tabs too difficult? Try these video lessons and learn fast
                Pa Ba
6 cycle mind


Ang lupit ng mga kanta ng bandang 'to. Try nio un solo nito, un isa kasing nakita ko na
tab ng kantang ito d2 sa site e 'a little farfetched' kaya inayos ko. Rate me nlng kasi
first tym kong mag-publish sa site na 'to. 

intro:

e—9h10-9h10--17--9-10---------------9h10-9h10--17--10-9---------|
b---------------------10--------10----------------------10------|
g------------------------9-9h11----------------------------9h11-|
d---------------------------------------------------------------|
a---------------------------------------------------------------|
e---------------------------------------------------------------|

e—9h10-9h10--17--9-10---------------9h10-9h10--17-17s19-17--|
b---------------------10--------10--------------------------|
g------------------------9-9h11-----------------------------|
d-----------------------------------------------------------|
a-----------------------------------------------------------|
e-----------------------------------------------------------|

May maririnig kaung hammering sa verse, bale dalawang gitara un kaya mahirap i-tab, un
isa plucking tapos un isa yata lead, hindi ako sigurado pero un hammering ang nakuha ko
	
	
e------------------------|
b-5h7-5h7-5h7-5h7--------|
g------------------7~----|
d------------------------|
a------------------------|
e------------------------|


Verse 1:
D
Habol ang tingin
G
Matang nagkukunwaring malambing
D		   G
Ayos kay bango, Pilit pagandahin
       D	G
Para ako'y mapansin
D
Sabog ang pag-iisip,
G
Hindi alam ang gagawin
D
Anong dahilan
       G
At hindi kita mapasa-akin

Chorus:
   D	      A
Saan ba? Kailan ba?
     Bm			  G
Ito lang ang alam kong gawin
   D        A
Paano ba? Ano ba?
Bm			G
Wala na bang ibang paraan?

(Repeat Intro)

Verse 2: (same as Verse 1)

Nais kong matikman
Ang yakap mong napakadiin
Ngiting kay saya
Tinatangay ako ng hangin
Nagiging malapit sa taas
Sa pan*langing ika'y mapasakin
Wala na bang para sa akin

(Repeat Chorus)

Adlib:
-----------15-------------------------------15-14-----------|
--14-15-14----15-------------------------15-------15-15s17--|
-------------------12-11-----------12-11--------------------|
-------------------------7-----12---------------------------|
------------------------------------------------------------|
------------------------------------------------------------|

---15-14-----14-15-15s17--15-14-14h15p14-----12s14-------|
15-------15-------------------------------17-------15----|
---------------------------------------------------------|
---------------------------------------------------------|
---------------------------------------------------------|
---------------------------------------------------------|

e--------------------------------------------------------------|
b-----------------------12-12-12-12-12-12-12-12s14-14-14-14-14-|
g--9-7---9------7---7------------------------------------------|
d------9---9/12---9--------------------------------------------|
a--------------------------------------------------------------|
e--------------------------------------------------------------|

e------------------------------------14~-14\12-10-12-10---|
b--15-15-15-15-15-15s17-17-17-17-17-----------------------|
g---------------------------------------------------------|
d---------------------------------------------------------|
a---------------------------------------------------------|
e---------------------------------------------------------|

e-------------------------------------------------|
b--15-14-12-14-12-10----10----10----10-12-12/15---|
g--------------------11----11----11---------------|
d-------------------------------------------------|
a-------------------------------------------------|
e-------------------------------------------------|

Coda:

D
Pipilitin, aaminin,
G
Hindi alam ang gagawin
D
Lalapitan, sasabihin
G
Hindi alam ang gagawin
D                   
Hindi alam ang sasabihin
G
Hindi alam ang gagawin
D                   
Hindi alam ang sasabihin
G
Hindi alam ang gagawin
(Repeat Chorus 2x)


e--17--15---------18--16----------|
b---------17--15----------18--16--|
g---------------------------------|
d---------------------------------|
a---------------------------------|
e---------------------------------|

(bilisan nio un 'pag kalabit dahil mabilis dun sa kanta)

Hindi ko sigurado un last part pero parang tama 'pag tinugtog. rate me nalang
or text me at 09155691830. kahit constructive or destructive criticism ayos lang.
            
Submit corrections

comments powered by Disqus
↑ Back to top | 6 Cycle Mind Tabs for Pa Ba. Lyrics for acoustic guitar and electric guitar. Tablatures and chords are parodies/interpretations of the original songs. You may use it for private study, scholarship, research or language learning purposes only