» » »

Pa Ba Tabs (ver.4)

Artists:  A B C D E F G H I J K L M N O P Q R S T U V W X Y Z # 

Pa Ba Tabs (ver.4)

6 Cycle Mind
Rating:
5/5 (1 vote)

Hard to play? Try these video lessons and learn fast.
                

This is my first time to tab a song here so don't say "BAD" words against
if you have any suggestions and any improvements for this song. I'll just 

Intro:

e|----9h10-9h10---17~--9-10---------------9h10-9h10--17~--9-9/10-9---------|
b|--------------------------10---------10--------------------------10------|
g|-9---------------------------9-9h10---------------------------------9-9--|
d|-------------------------------------------------------------------------|
a|-------------------------------------------------------------------------|
e|-------------------------------------------------------------------------|

e|----9h10-9h10---17~--9-10--------------9h10-9h10--17~--17/19-17~---------|
b|--------------------------10---------9-----------------------------------|
g|-9---------------------------9-9h10--------------------------------------|
d|-------------------------------------------------------------------------|
a|-------------------------------------------------------------------------|
e|-------------------------------------------------------------------------|

Intro chords: D-C#-D-G

Verse: D-G-D-C#-G
       D-G-D-G

Chorus: D-C#-B
        G
        D-C#-D
        G

Repeat Intro: (Lead & Rythm)

Verse 2: Repeat Verse chords

Repeat Chorus:

Bridge: D
        G
        D
        G-D
        G
        G-D
        G

Repeat Chorus: (2x)

I-rate nyo na lng tong gnwa ko... tska tnx nga pala sa mga 2mulong sa akin
lalo na sa mga ka banda ko R.A Alcantara, Frank Bunag, Ray reyes at Romar Ditangco.
Para 2 sa lahat ng gitarista ng NDGM!
            
Hard to play? Try these video lessons and learn fast. | Correct




comments powered by Disqus
↑ Back to top | Tablatures and chords are parodies/interpretations of the original songs. You may use it for private study, scholarship, research or language learning purposes only