» » »

6 Cycle Mind, Pa Ba Tabs (ver.2)

Artists:  A B C D E F G H I J K L M N O P Q R S T U V W X Y Z # 

Pa Ba Tabs (ver.2)

6 Cycle Mind Tabs
Rating:
5/5 (6 votes)
Pa Ba lessons Tabs too difficult? Try these video lessons and learn fast
                intro:
--------------15-------------------|
--14-15-14-15----14-15-------------|
-----------------------12-11-11s12-|
-----------------------------------|
-----------------------------------|
-----------------------------------|

--------------15-------------------|
--14-15-14-15----14-15-------------|
-----------------------12-11-11----|
-----------------------------------|
-----------------------------------|
-----------------------------------|

--------------15-------------------|
--14-15-14-15----14-15-------------|
-----------------------12-11-11s12-|
-----------------------------------|
-----------------------------------|
-----------------------------------|

--------------15----15/17-15-------|
--14-15-14-15----14----------------|
-----------------------------------|
-----------------------------------|
-----------------------------------|
-----------------------------------|

Verse 1:
D
Habol ang tingin
G
Matang nagkukunwaring malambing
D
Ayos kay bango, Pilit pagandahin
         D-C#/D G
Para ako'y mapansin
D
Sabog ang pag-iisip,
G
Hindi alam ang gagawin
D
Anong dahilan
       G
At hindi kita mapasa-akin

Chorus:
      D     C# B
Saab ba? Kailan ba?
     G
Ito lang ang alam kong gawin
         D        C#/D
Paano ba? Ano ba?
G
Wala na bang ibang paraan?

(Repeat Intro)

Verse 2: (same as Verse 1)
Nais kong matikman
Ang yakap mong napakadiin
Ngiting kay saya
Tinatangay ako ng hangin
Nagiging malapit sa taas
Sa pan*langing ika'y mapasakin
Wala na pang para sa akin

(Repeat Chorus)

Adlib:

-----------15-----------------------------15-14------------------------|
--14-15-14----15-----------------------15-------15-15s17---------------|
-------------------12-11-----------12----------------------------------|
------------------------12-----11----11--------------------------------|
-----------------------------------------------------------------------|
-----------------------------------------------------------------------|

---15-14-----14-15-15s17--15-14-14h15p14-----14s15---------------------------|
15-------15-------------------------------17-------15------------------------|
-----------------------------------------------------------------------------|
-----------------------------------------------------------------------------|
-----------------------------------------------------------------------------|
-----------------------------------------------------------------------------|

-----------------------------------------------------------------------------|
-------------------------------------12-12-12-12-12-12-12-12s14-14-14-14-14--|
--12\11------------------11--------------------------------------------------|
--------12-11-12--10-12-----12-12--------------------------------------------|
-----------------------------------------------------------------------------|
-----------------------------------------------------------------------------|

--14-14-15-15-15-15-15-15-15-17-17-17-17-17-17--15s17-14-15-14---------------|
---------------------------------------------------------------17-15---------|
-----------------------------------------------------------------------------|
-----------------------------------------------------------------------------|
-----------------------------------------------------------------------------|
-----------------------------------------------------------------------------|

-----------------------------------------------------------------------------|
--17-15-14-15-14------------------14-15-15s17--------------------------------|
------------------17-15-17-15--17--------------------------------------------|
-----------------------------------------------------------------------------|
-----------------------------------------------------------------------------|
-----------------------------------------------------------------------------|
Coda:
D
Pipilitin, aaminin,
G
Hindi alam ang gagawin
D
Lalapitan, sasabihin

G
Hindi alam ang gagawin
D                   C#/D
Hindi alam ang sasabihin
G
Hindi alam ang gagawin
D                   C#/D
Hindi alam ang sasabihin
G
Hindi alam ang gagawin

(Repeat Chorus 2x)

enjoy <<>>
            

comments powered by Disqus
↑ Back to top | 6 Cycle Mind Tabs for Pa Ba. Lyrics for acoustic guitar and electric guitar. Tablatures and chords are parodies/interpretations of the original songs. You may use it for private study, scholarship, research or language learning purposes only